Song name
# A B C D E F G H I J K L M N O P Q R S T U V W X Y Z

Changin My Life - Eternal Snow tab

Eternal Snow - Full Moon Wo Sagashite

Tabbed by: Deldas

Tuning: Standard

e|---------------|--------------|-----------------------------|
B|---1------1--0-|--------------|-----------------------------|
G|---2----2------|-2-------2--0-|-0------0-------0-------1----|
D|---2--2--------|-3-----3------|-0----0-------0------2-------|
A|---0-----------|-3--3---------|-2--2------2------2----------|
E|---------------|-1------------|-3---------------------------|

e|---0---------------------------|
B|-0----0------------------------|
G|---------1---------------------|
D|-----------2-------------------|
A|-------------------------------|
E|-------------------------------|

Repeat Twice.
Thats just the intro, up till the singing occurs, if anyone has the rest please feel 
free to add it on :D
Tap to rate this tab
 
# A B C D E F G H I J K L M N O P Q R S T U V W X Y Z