Song name
# A B C D E F G H I J K L M N O P Q R S T U V W X Y Z

Changin My Life - Eternal Snow tab

Hello guys! Let me welcome myself as part of UG through this tab. I actually just 
"translated" this tab from flute music sheet. Hope you like it!

E|-1--1-0----------------------------|
B|---3-----3--3-1--1--1--------------|
G|--2--------3-------0------0-2--2-0-|      ►►►► Can be repeated trice or   
D|----------3-----------0-2-----3----|             not.
A|------------------3----------3-----|
E|-----------------------------------|

E|--0-1-----0-3-1-1-------------------|--0-1--1-1-5--3-1--1-1-0-1-3-|
B|-3-----3-3-------3-3-3-3-1------3-1-|-3------------------1--------|
G|---------------------------2-2-2----|-----------------------------|
D|------------------------------------|-----------------------------|
A|------------------------------------|-----------------------------|
E|------------------------------------|-----------------------------|
Tap to rate this tab
 
# A B C D E F G H I J K L M N O P Q R S T U V W X Y Z