Song name
# A B C D E F G H I J K L M N O P Q R S T U V W X Y Z

Channel 3 - Wetspots tab

Intro (bass Only)  x2
E--------------------|
B--------------------|
G--------------------|
D--------------------|
A--------------------|
E--------------------|

Main               x4
E--------------------|
B--------------------|
G-6-6-9-9-4-4-4-9-4--|
D-6-6-9-9-4-4-4-9-4--|
A-4-4-7-7-2-2-2-7-2--|
E--------------------|

Verse
E-----------------------------------------------------------------|
B-----------------------------------------------------------------|
G-6-6-6-6-6-6-6-6-9-9-9-9-9-9-9-9-2-2-2-2-2-2-2-2-4-4-4-4-4-4-4-4-|
D-6-6-6-6-6-6-6-6-9-9-9-9-9-9-9-9-2-2-2-2-2-2-2-2-4-4-4-4-4-4-4-4-|
A-4-4-4-4-4-4-4-4-7-7-7-7-7-7-7-7-0-0-0-0-0-0-0-0-2-2-2-2-2-2-2-2-|
E-----------------------------------------------------------------|

Main               x4
E--------------------|
B--------------------|
G-6-6-9-9-4-4-4-9-4--|
D-6-6-9-9-4-4-4-9-4--|
A-4-4-7-7-2-2-2-7-2--|
E--------------------|

Verse
E-----------------------------------------------------------------|
B-----------------------------------------------------------------|
G-6-6-6-6-6-6-6-6-9-9-9-9-9-9-9-9-2-2-2-2-2-2-2-2-4-4-4-4-4-4-4-4-|
D-6-6-6-6-6-6-6-6-9-9-9-9-9-9-9-9-2-2-2-2-2-2-2-2-4-4-4-4-4-4-4-4-|
A-4-4-4-4-4-4-4-4-7-7-7-7-7-7-7-7-0-0-0-0-0-0-0-0-2-2-2-2-2-2-2-2-|
E-----------------------------------------------------------------|

Main               x4
E--------------------|
B--------------------|
G-6-6-9-9-4-4-4-9-4--|
D-6-6-9-9-4-4-4-9-4--|
A-4-4-7-7-2-2-2-7-2--|
E--------------------|

Bridge/Verse
G-----------------------------------------------------------------|
D-----------------------------------------------------------------|
G-6-6-6-6-6-6-6-6-9-9-9-9-9-9-9-9-11111111111111116-6-6-6-6-6-6-6-|
D-6-6-6-6-6-6-6-6-9-9-9-9-9-9-9-9-11111111111111116-6-6-6-6-6-6-6-|
A-4-4-4-4-4-4-4-4-7-7-7-7-7-7-7-7-9-9-9-9-9-9-9-9-4-4-4-4-4-4-4-4-|
E-----------------------------------------------------------------|

E-----------------------------------------|
B-----------------------------------------|
G-9-9-9-9-9-9-9-9-13-13-13-13-13-13-13-13-|
D-9-9-9-9-9-9-9-9-13-13-13-13-13-13-13-13-|
A-7-7-7-7-7-7-7-7-11-11-11-11-11-11-11-11-|
E-----------------------------------------|

Main               x6
E--------------------|
B--------------------|
G-6-6-9-9-4-4-4-9-4--|
D-6-6-9-9-4-4-4-9-4--|
A-4-4-7-7-2-2-2-7-2--|
E--------------------|
Tap to rate this tab
# A B C D E F G H I J K L M N O P Q R S T U V W X Y Z