Song name
# A B C D E F G H I J K L M N O P Q R S T U V W X Y Z

Channel 3 - Mannequin tab

TUNE HALF STEP DOWN

Verse
E------------------------------|------------------------------|
B------------------------------|------------------------------|
G-9-9-9-9-9-9-9-9--12-11-12-11-|-9-9-9-9-9-9-9-9--12-11-12-11-|
D-9-9-9-9-9-9-9-9--12-11-12-11-|-9-9-9-9-9-9-9-9--12-11-12-11-|
A-7-7-7-7-7-7-7-7--10-9--10-9--|-7-7-7-7-7-7-7-7--10-9--10-9--|
E------------------------------|------------------------------|

E------------------------------|------------------------------|
B------------------------------|------------------------------|
G-9-9-9-9-9-9-9-9--12-11-12-11-|-9-9-9-9-9-9-9-9--12-11-12-11-|
D-9-9-9-9-9-9-9-9--12-11-12-11-|-9-9-9-9-9-9-9-9--12-11-12-11-|
A-7-7-7-7-7-7-7-7--10-9--10-9--|-7-7-7-7-7-7-7-7--10-9--10-9--|
E------------------------------|------------------------------|

Pre-Chorus                      x2
E---------------------------------|---------3-3-3-3-------------------|
B---------------------------------|---------3-3-3-3-10101010-12121212-|
G-9-9-9-9-7-7-7-7-----------------|-9-9-9-9-0-0-0-0-9-9-9-9--11111111-|
D-9-9-9-9-7-7-7-7-9-9-9-9-9-9-9-9-|-9-9-9-9---------7-7-7-7--9-9-9-9--|
A-7-7-7-7-5-5-5-5-9-9-9-9-9-9-9-9-|-7-7-7-7---------------------------|
E-----------------7-7-7-7-7-7-7-7-|-----------------------------------|

Chorus
E----------------|----------------|----------------|
B----------------|----------------|----------------|
G-9-9-9-9--12-11-|-9-9-9-9--12-11-|-9-9-9-9--12-11-|
D-9-9-9-9--12-11-|-9-9-9-9--12-11-|-9-9-9-9--12-11-|
A-7-7-7-7--10-9--|-7-7-7-7--10-9--|-7-7-7-7--10-9--|
E----------------|----------------|----------------|

E---------------------------------|---------------------------------|
B---------------------------------|---------------------------------|
G-9-9-9-9-7-7-7-7-5-5-5-5-5-5-5-5-|-9-9-9-9-7-7-7-7-5-5-5-5-5-5-5-5-|
D-9-9-9-9-7-7-7-7-5-5-5-5-5-5-5-5-|-9-9-9-9-7-7-7-7-5-5-5-5-5-5-5-5-|
A-7-7-7-7-5-5-5-5-3-3-3-3-3-3-3-3-|-7-7-7-7-5-5-5-5-3-3-3-3-3-3-3-3-|
E---------------------------------|---------------------------------|

Verse
E------------------------------|------------------------------|
B------------------------------|------------------------------|
G-9-9-9-9-9-9-9-9--12-11-12-11-|-9-9-9-9-9-9-9-9--12-11-12-11-|
D-9-9-9-9-9-9-9-9--12-11-12-11-|-9-9-9-9-9-9-9-9--12-11-12-11-|
A-7-7-7-7-7-7-7-7--10-9--10-9--|-7-7-7-7-7-7-7-7--10-9--10-9--|
E------------------------------|------------------------------|

E------------------------------|------------------------------|
B------------------------------|------------------------------|
G-9-9-9-9-9-9-9-9--12-11-12-11-|-9-9-9-9-9-9-9-9--12-11-12-11-|
D-9-9-9-9-9-9-9-9--12-11-12-11-|-9-9-9-9-9-9-9-9--12-11-12-11-|
A-7-7-7-7-7-7-7-7--10-9--10-9--|-7-7-7-7-7-7-7-7--10-9--10-9--|
E------------------------------|------------------------------|

Pre-Chorus                      x2
E---------------------------------|---------3-3-3-3-------------------|
B---------------------------------|---------3-3-3-3-10101010-12121212-|
G-9-9-9-9-7-7-7-7-----------------|-9-9-9-9-0-0-0-0-9-9-9-9--11111111-|
D-9-9-9-9-7-7-7-7-9-9-9-9-9-9-9-9-|-9-9-9-9---------7-7-7-7--9-9-9-9--|
A-7-7-7-7-5-5-5-5-9-9-9-9-9-9-9-9-|-7-7-7-7---------------------------|
E-----------------7-7-7-7-7-7-7-7-|-----------------------------------|

Chorus
E----------------|----------------|----------------|
B----------------|----------------|----------------|
G-9-9-9-9--12-11-|-9-9-9-9--12-11-|-9-9-9-9--12-11-|
D-9-9-9-9--12-11-|-9-9-9-9--12-11-|-9-9-9-9--12-11-|
A-7-7-7-7--10-9--|-7-7-7-7--10-9--|-7-7-7-7--10-9--|
E----------------|----------------|----------------|

E---------------------------------|---------------------------------|
B---------------------------------|---------------------------------|
G-9-9-9-9-7-7-7-7-5-5-5-5-5-5-5-5-|-9-9-9-9-7-7-7-7-5-5-5-5-5-5-5-5-|
D-9-9-9-9-7-7-7-7-5-5-5-5-5-5-5-5-|-9-9-9-9-7-7-7-7-5-5-5-5-5-5-5-5-|
A-7-7-7-7-5-5-5-5-3-3-3-3-3-3-3-3-|-7-7-7-7-5-5-5-5-3-3-3-3-3-3-3-3-|
E---------------------------------|---------------------------------|

End
E----------------|----------------|
B----------------|----------------|
G-9-9-9-9--12-11-|-9-9-9-9--12-11-|
D-9-9-9-9--12-11-|-9-9-9-9--12-11-|
A-7-7-7-7--10-9--|-7-7-7-7--10-9--|
E----------------|----------------|
Tap to rate this tab
 
# A B C D E F G H I J K L M N O P Q R S T U V W X Y Z