Song name
# A B C D E F G H I J K L M N O P Q R S T U V W X Y Z

Channel 3 - Didnt Know tab

Intro (bass Starts)                                             x2
E-----------------------------------------------------------------|
B-----------------------------------------------------------------| 
G-----------------4-4-4-4-4-4-4-4-6-6-6-6-6-6-6-6-7-7-7-7-7-7-7-7-|
D-7-7-7-7-7-7-7-7-4-4-4-4-4-4-4-4-6-6-6-6-6-6-6-6-7-7-7-7-7-7-7-7-|
A-7-7-7-7-7-7-7-7-2-2-2-2-2-2-2-2-4-4-4-4-4-4-4-4-5-5-5-5-5-5-5-5-|
E-5-5-5-5-5-5-5-5-------------------------------------------------|

Solo
E------------------------------------------------------------------|
B------------------------------------------------------------------|
G-9-9---9-9---9-9---9-9---9-9---9-9---9-9---9-9---9-9---9-9---7----|
D------------------------------------------------------------------|
A------------------------------------------------------------------|
E--------------------------palmuted--------------------------------|

E---------------------------------|---------------------------------|
B---------------------------------|---------------------------------|
G-9-------9-----9-9-9--11--9--7---|-9-------9-----9-9-9--11--9--7---|
D----7-------7--------------------|----7-------7--------------------|
A---------------------------------|---------------------------------|
E---------------------------------|---------------------------------|

Verse                                                            x5
E-----------------------------------------------------------------|
B-----------------------------------------------------------------| 
G-----------------4-4-4-4-4-4-4-4-6-6-6-6-6-6-6-6-7-7-7-7-7-7-7-7-|
D-7-7-7-7-7-7-7-7-4-4-4-4-4-4-4-4-6-6-6-6-6-6-6-6-7-7-7-7-7-7-7-7-|
A-7-7-7-7-7-7-7-7-2-2-2-2-2-2-2-2-4-4-4-4-4-4-4-4-5-5-5-5-5-5-5-5-|
E-5-5-5-5-5-5-5-5-------------------------------------------------|

Chorus                        x2
E-------------------------------|
B-------------------------------|
G-9-9-9--9-9-9--7-7-7---6----4--|
D-9-9-9--9-9-9--7-7-7---6----4--|
A-7-7-7--7-7-7--5-5-5---4----2--|
E-------------------------------|

Verse                                                            x4
E-----------------------------------------------------------------|
B-----------------------------------------------------------------| 
G-----------------4-4-4-4-4-4-4-4-6-6-6-6-6-6-6-6-7-7-7-7-7-7-7-7-|
D-7-7-7-7-7-7-7-7-4-4-4-4-4-4-4-4-6-6-6-6-6-6-6-6-7-7-7-7-7-7-7-7-|
A-7-7-7-7-7-7-7-7-2-2-2-2-2-2-2-2-4-4-4-4-4-4-4-4-5-5-5-5-5-5-5-5-|
E-5-5-5-5-5-5-5-5-------------------------------------------------|

Chorus                        x2
E-------------------------------|
B-------------------------------|
G-9-9-9--9-9-9--7-7-7---6----4--|
D-9-9-9--9-9-9--7-7-7---6----4--|
A-7-7-7--7-7-7--5-5-5---4----2--|
E-------------------------------|

                             x2
E------------------------------|
B------------------------------|
G--------4-4-4--6-6-6--7--6--4-|
D-7-7-7--4-4-4--6-6-6--7--6--4-|
A-7-7-7--2-2-2--4-4-4--5--4--2-|
E-5-5-5------------------------|

Solo
E------------------------------------------------------------------|
B------------------------------------------------------------------|
G-9-9---9-9---9-9---9-9---9-9---9-9---9-9---9-9---9-9---9-9---7----|
D------------------------------------------------------------------|
A------------------------------------------------------------------|
E--------------------------palmuted--------------------------------|

Verse                                                           x4
E-----------------------------------------------------------------|
B-----------------------------------------------------------------| 
G-----------------4-4-4-4-4-4-4-4-6-6-6-6-6-6-6-6-7-7-7-7-7-7-7-7-|
D-7-7-7-7-7-7-7-7-4-4-4-4-4-4-4-4-6-6-6-6-6-6-6-6-7-7-7-7-7-7-7-7-|
A-7-7-7-7-7-7-7-7-2-2-2-2-2-2-2-2-4-4-4-4-4-4-4-4-5-5-5-5-5-5-5-5-|
E-5-5-5-5-5-5-5-5-------------------------------------------------|

Chorus                        x2
E-------------------------------|
B-------------------------------|
G-9-9-9--9-9-9--7-7-7---6----4--|
D-9-9-9--9-9-9--7-7-7---6----4--|
A-7-7-7--7-7-7--5-5-5---4----2--|
E-------------------------------|

                              x2
E------------------------------|
B------------------------------|
G--------4-4-4--6-6-6--7--6--4-|
D-7-7-7--4-4-4--6-6-6--7--6--4-|
A-7-7-7--2-2-2--4-4-4--5--4--2-|
E-5-5-5------------------------|

Solo
E-5-5-5--7-7-7--9-9-9-10-9-7--5-5-5--7-7-7--9-9-9-10-9-7----------|
B-5-5-5--7-7-7--9-9-9-10-9-7--5-5-5--7-7-7--9-9-9-10-9-7----------|
G-----------------------------------------------------------------|
D-----------------------------------------------------------------|
A-----------------------------------------------------------------|
E-----------------------------------------------------------------|

Bridge (3:19) (mute after each strum)                           x2
E-----------------------------------------------------------------|
B-----------------------------------------------------------------|
G-9-9-9-9-9-9-9-9-9-9-9-9-9-9-9-9-9-9-9-9-9-9-9-9-9-9-9-9-9-9-9-9-|
D-----------------------------------------------------------------|
A-----------------------------------------------------------------|
E-----------------------------------------------------------------|

Verse                                                            x4
E-----------------------------------------------------------------|
B-----------------------------------------------------------------| 
G-----------------4-4-4-4-4-4-4-4-6-6-6-6-6-6-6-6-7-7-7-7-7-7-7-7-|
D-7-7-7-7-7-7-7-7-4-4-4-4-4-4-4-4-6-6-6-6-6-6-6-6-7-7-7-7-7-7-7-7-|
A-7-7-7-7-7-7-7-7-2-2-2-2-2-2-2-2-4-4-4-4-4-4-4-4-5-5-5-5-5-5-5-5-|
E-5-5-5-5-5-5-5-5-------------------------------------------------|

Chorus                        x2
E-------------------------------|
B-------------------------------|
G-9-9-9--9-9-9--7-7-7---6----4--|
D-9-9-9--9-9-9--7-7-7---6----4--|
A-7-7-7--7-7-7--5-5-5---4----2--|
E-------------------------------|

                             x4
E------------------------------|
B------------------------------|
G--------4-4-4--6-6-6--7--6--4-|
D-7-7-7--4-4-4--6-6-6--7--6--4-|
A-7-7-7--2-2-2--4-4-4--5--4--2-|
E-5-5-5------------------------|
                                                                 x2
E-----------------------------------------------------------------|
B-----------------------------------------------------------------| 
G-----------------4-4-4-4-4-4-4-4-6-6-6-6-6-6-6-6-7-7-7-7-7-7-7-7-|
D-7-7-7-7-7-7-7-7-4-4-4-4-4-4-4-4-6-6-6-6-6-6-6-6-7-7-7-7-7-7-7-7-|
A-7-7-7-7-7-7-7-7-2-2-2-2-2-2-2-2-4-4-4-4-4-4-4-4-5-5-5-5-5-5-5-5-|
E-5-5-5-5-5-5-5-5-------------------------------------------------|

                             x1
E------------------------------|
B------------------------------|
G--------4-4-4--6-6-6--7--6--4-|
D-7-7-7--4-4-4--6-6-6--7--6--4-|
A-7-7-7--2-2-2--4-4-4--5--4--2-|
E-5-5-5------------------------|
Tap to rate this tab
 
# A B C D E F G H I J K L M N O P Q R S T U V W X Y Z