Guitaretab - guitar tabs
Song name
# A B C D E F G H I J K L M N O P Q R S T U V W X Y Z

Channel Zero - Heroin tab

Artist: Channel Zero
Song: Heroin
Album: Unsafe
Tuning: Drop D
Tabbed by: J.H. (guitar player of Blind My Soul, belgian metal band
----------------------------------------------------------------------------
p= palm mute
h= hammer

E|-------------------------------------------|---|
B|-------------------------------------------|   |
G|-------------------------------------------|   |
D|-------------------------------------------| X3|
A|-------------------------------------------|   |
D|-0h12-0h3-0h5-0h6-0h5----------------------|   |
                                                 | Repeat this 4 times
E|-------------------------------------------|   |
B|-------------------------------------------|   |
G|-------------------------------------------|   |
D|-------------------------------------------|   |
A|-------------------------------------------|   |
D|-0h12-0h6-0h3-3-3-5------------------------|---|

E|-------------------------------------|---|
B|-------------------------------------|   |
G|-------------------------------------|   |
D|-0--3-5---0--------------------------|   |
A|-0--3-5---0--------------------------|   |
D|-0--3-5---0--------------------------|   |
                                           | Repeat this 2 times
E|-------------------------------------|   |
B|-------------------------------------|   |
G|-------------------------------------|   |
D|-0--3-5-6-5h6-3-0--------------------|   |
A|-0--3-5-6-5h6-3-0--------------------|   |
D|-0--3-5-6-5h6-3-0--------------------|---|

E|-------------------------------------------|---|
B|-------------------------------------------|   |
G|-------------------------------------------|   |
D|-------------------------------------------| X3|
A|-------------------------------------------|   |
D|-0h12-0h3-0h5-0h6-0h5----------------------|   |
                                                 | Repeat this 2 times
E|-------------------------------------------|   |
B|-------------------------------------------|   |
G|-------------------------------------------|   |
D|-------------------------------------------|   |
A|-------------------------------------------|   |
D|-0h12-0h6-0h3-3-3-5------------------------|---|

E|-------------------------------------|---|
B|-------------------------------------|   |
G|-------------------------------------|   |
D|-0--3-5---0--------------------------|   |
A|-0--3-5---0--------------------------|   |
D|-0--3-5---0--------------------------|   |
                                           | Repeat this 2 times
E|-------------------------------------|   |
B|-------------------------------------|   |
G|-------------------------------------|   |
D|-0--3-5-6-5h6-3-0--------------------|   |
A|-0--3-5-6-5h6-3-0--------------------|   |
D|-0--3-5-6-5h6-3-0--------------------|---|
[ Tab from: http://www.guitaretab.com/c/channel-zero/183763.html ]
E|-----------------------------------------|---|
B|-----------------------------------------|   |
G|-----------------------------------------|   |
D|-p0--3-0-3-0-3---------------------------| X3|
A|-p0--3-0-3-0-3---------------------------|   |
D|-p0--3-0-3-0-3---------------------------|   |
                                               | Repeat this 2 times
E|-----------------------------------------|   |
B|-----------------------------------------|   |
G|-----------------------------------------|   |
D|-p0--3-0-3-5-6---------------------------|   |
A|-p0--3-0-3-5-6---------------------------|   |
D|-p0--3-0-3-5-6---------------------------|---|

E|----------------------------------------|
B|----------------------------------------|
G|----------------------------------------|
D|-p0-p0-p0-p0-p0-p0-p0-p0-p0-p0-p0-p0----|
A|-p0-p0-p0-p0-p0-p0-p0-p0-p0-p0-p0-p0----|
D|-p0-p0-p0-p0-p0-p0-p0-p0-p0-p0-p0-p0----|

E|----------------------------------------|
B|----------------------------------------|
G|----------------------------------------|
D|-0-3-0-3-0-3-0-3-0-3-5-6----------------|
A|-0-3-0-3-0-3-0-3-0-3-5-6----------------|
D|-0-3-0-3-0-3-0-3-0-3-5-6----------------|

E|----------------------------------------|
B|----------------------------------------|
G|----------------------------------------|
D|-0-3-0-3-0-3-0-3-0-3-0-3----------------|
A|-0-3-0-3-0-3-0-3-0-3-0-3----------------|
D|-0-3-0-3-0-3-0-3-0-3-0-3----------------|

E|----------------------------------------|
B|----------------------------------------|
G|----------------------------------------|
D|-0-3-0-3-0-3-0-3-0-3-5-6----------------|
A|-0-3-0-3-0-3-0-3-0-3-5-6----------------|
D|-0-3-0-3-0-3-0-3-0-3-5-6----------------|

Bridge (guitar 1)

E|-555555-444444-555555-888888-13---------|
B|-333333-222222-333333-666666-13---------|
G|----------------------------------------|
D|----------------------------------------|
A|----------------------------------------|
D|----------------------------------------|

Bridge (guitar 2)

E|-------------------------------------------|---|
B|-------------------------------------------|   |
G|-------------------------------------------|   |
D|-------------------------------------------| X3|
A|-------------------------------------------|   |
D|-0h12-0h3-0h5-0h6-0h5----------------------|   |
                                                 | Repeat this 4 times
E|-------------------------------------------|   |
B|-------------------------------------------|   |
G|-------------------------------------------|   |
D|-------------------------------------------|   |
A|-------------------------------------------|   |
D|-0h12-0h6-0h3-3-3-5------------------------|---|

E|-------------------------------------------|
B|-------------------------------------------|
G|-------------------------------------------|
D|-220333333---------------------------------| X16 (palm muted)
A|-220333333---------------------------------|
D|-220333333---------------------------------|

E|-------------------------------------------|---|
B|-------------------------------------------|   |
G|-------------------------------------------|   |
D|-p0--3-0-3-0-3-----------------------------| X2|
A|-p0--3-0-3-0-3-----------------------------|   |
D|-p0--3-0-3-0-3-----------------------------|   |
                                                 | Repeat this 2 times
E|-------------------------------------------|   |
B|-------------------------------------------|   |
G|-------------------------------------------|   |
D|-p0--3-0-3-0-3-0-3-0-3-5-6-----------------|   |
A|-p0--3-0-3-0-3-0-3-0-3-5-6-----------------|   |
D|-p0--3-0-3-0-3-0-3-0-3-5-6-----------------|---|

E|-----------------------------------------------|
B|-----------------------------------------------|
G|-----------------------------------------------|
D|-p0--p0--p0--p0--p0-p0-p0----------------------|
A|-p0--p0--p0--p0--p0-p0-p0----------------------|
D|-p0--p0--p0--p0--p0-p0-p0----------------------|
Related for Heroin tab
Advertisement will be closed in 10 seconds