Song name
# A B C D E F G H I J K L M N O P Q R S T U V W X Y Z

Channel Zero - Fools Parade tab

Artist: Channel Zero
Album: Black Fuel
Song: Fools Parade


INTRO and MAIN RIFF :

E---------------------------------|-------------------------------|
B---------------------------------|-------------------------------|
G---------------------------------|-------------------------------|
D---------2-----------------------|---------2---------------------|
A------------2--------------------|------------2------------------|
E--0-3-0--------0-3-4-0-3-4-0-3-4-|--0-3-0--------0-3-4-0-3-4-0-3-|

CHORUS :


E---------------------------------------------------------------------------|
B---------------------------------------------------------------------------|
G---------------------------------------------------------------------------|
D-----------5---------5---------5---------5--5--5--5--5---------------------|
A-----------5---------5---------5---------5--5--5--5--5---------------------|
E-----0--0--3---0--0--3---0--0--3---0--0--3--3--3--3--3---------------------|

BRIDGE :


E---------------------------------------|
B---------------------------------------|
G---------------------------------------|
D----2---3------------------------------|
A----2---3------------------------------|
E----0---1------------------------------|

OUTRO :


E---------------------------------------------------------------------------|
B---------------------------------------------------------------------------|
G---------------------------------------------------------------------------|
D---------------------------------------------------------------------------|
A------------1--0-----0-----------------------------------------------------|
E---0--3--0--------3-----3--0--0--3--2--1-----------------------------------|
Tap to rate this tab
 
# A B C D E F G H I J K L M N O P Q R S T U V W X Y Z