Song name
# A B C D E F G H I J K L M N O P Q R S T U V W X Y Z

Channel Zero - Self Control tab

Artist: Channel Zero
Album: Black Fuel
Song: Self Control


e|-------------------------------------------------------------------|
B|-------------------------------------------------------------------|
G|-------------------------------------------------------------------|
D|-------3-0--4-------3-0--3----------------------------------------4| X5
A|-3-5-5--------3-5-5-------3-5-5-0----------------------------------|
D|----------------------------------5~--3-5-6--6-5-3--6-5-3--6-5-3-0-|

e|-------------------------------------------------------------------|
B|-------------------------------------------------------------------|
G|-------------------------------------------------------------------|
D|-0-0--xx-xx-xx-xx--0-0-0h3-0h5-0h7-0h8-----------------------------| 
A|-0-0--xx-xx-xx-xx--0-0-0h3-0h5-0h7-0h8-----------------------------|
D|-0-0--xx-xx-xx-xx--0-0-0h3-0h5-0h7-0h8-----------------------------|

e|-------------------------------------------------------------------|
B|-------------------------------------------------------------------|
G|-------------------------------------------------------------------|
D|-0-0--xx-xx-xx-xx--0-0-0h3-0h5-0h4-0h1-----------------------------| 
A|-0-0--xx-xx-xx-xx--0-0-0h3-0h5-0h4-0h1-----------------------------|
D|-0-0--xx-xx-xx-xx--0-0-0h3-0h5-0h4-0h1-----------------------------|

e|-------------------------------------------------------------------|
B|-------------------------------------------------------------------|
G|-------------------------------------------------------------------|
D|-0-0--xx-xx-xx-xx--0-0-0h3-0h5-0h7-0h8-----------------------------| 
A|-0-0--xx-xx-xx-xx--0-0-0h3-0h5-0h7-0h8-----------------------------|
D|-0-0--xx-xx-xx-xx--0-0-0h3-0h5-0h7-0h8-----------------------------|

e|-------------------------------------------------------------------|
B|-------------------------------------------------------------------|
G|-------------------------------------------------------------------|
D|-0-0--xx-xx-xx-xx--0-0-0h3-0h5-0h4-0h1-----------------------------| 
A|-0-0--xx-xx-xx-xx--0-0-0h3-0h5-0h4-0h1-----------------------------|
D|-0-0--xx-xx-xx-xx--0-0-0h3-0h5-0h4-0h1-----------------------------|

e|-------------------------------------------------------------------|
B|-------------------------------------------------------------------|
G|-------------------------------------------------------------------|
D|-------3-0--4-------3-0--3----------------------------------------4| X5
A|-3-5-5--------3-5-5-------3-5-5-0----------------------------------|
D|----------------------------------5~--3-5-6--6-5-3--6-5-3--6-5-3-0-|

e|-------------------------------------------------------------------|
B|-------------------------------------------------------------------|
G|-------------------------------------------------------------------|
D|-0-0--xx-xx-xx-xx--0-0-0h3-0h5-0h7-0h8-----------------------------| 
A|-0-0--xx-xx-xx-xx--0-0-0h3-0h5-0h7-0h8-----------------------------|
D|-0-0--xx-xx-xx-xx--0-0-0h3-0h5-0h7-0h8-----------------------------|

e|-------------------------------------------------------------------|
B|-------------------------------------------------------------------|
G|-------------------------------------------------------------------|
D|-0-0--xx-xx-xx-xx--0-0-0h3-0h5-0h4-0h1-----------------------------| 
A|-0-0--xx-xx-xx-xx--0-0-0h3-0h5-0h4-0h1-----------------------------|
D|-0-0--xx-xx-xx-xx--0-0-0h3-0h5-0h4-0h1-----------------------------|

e|-------------------------------------------------------------------|
B|-------------------------------------------------------------------|
G|-------------------------------------------------------------------|
D|-0-0--xx-xx-xx-xx--0-0-0h3-0h5-0h7-0h8-----------------------------| 
A|-0-0--xx-xx-xx-xx--0-0-0h3-0h5-0h7-0h8-----------------------------|
D|-0-0--xx-xx-xx-xx--0-0-0h3-0h5-0h7-0h8-----------------------------|

e|-------------------------------------------------------------------|
B|-------------------------------------------------------------------|
G|-------------------------------------------------------------------|
D|-0-0--xx-xx-xx-xx--0-0-0h3-0h5-0h4-0h1-----------------------------| 
A|-0-0--xx-xx-xx-xx--0-0-0h3-0h5-0h4-0h1-----------------------------|
D|-0-0--xx-xx-xx-xx--0-0-0h3-0h5-0h4-0h1-----------------------------|

e|-------------------------------------------------------------------|
B|-------------------------------------------------------------------|
G|-------------------------------------------------------------------| X4
D|-0-0-12-0-0-00-13-10---0-0-12-0-0-00-12-10-------------------------| 
A|-0-0-12-0-0-00-13-10---0-0-12-0-0-00-12-10-------------------------|
D|-0-0-12-0-0-00-13-10---0-0-12-0-0-00-12-10-------------------------|

e|-------------------------------------------------------------------|
B|-------------------------------------------------------------------|
G|-------------------------------------------------------------------|
D|-0-----------------------------------------------------------------| 
A|-0-----------------------------------------------------------------|
D|-0-----------------------------------------------------------------|

e|-------------------------------------------------------------------|
B|-------------------------------------------------------------------|
G|-------------------------------------------------------------------| X4
D|-0-0-12-0-0-00-13-10---0-0-12-0-0-00-12-10-------------------------| 
A|-0-0-12-0-0-00-13-10---0-0-12-0-0-00-12-10-------------------------|
D|-0-0-12-0-0-00-13-10---0-0-12-0-0-00-12-10-------------------------|

e|-------------------------------------------------------------------|
B|-------------------------------------------------------------------|
G|-------------------------------------------------------------------|
D|0-4------3-0--3-------------------------------------------4--------| 
A|0--3-5-5--------3-5-5-0--------------------------------------------|
D|0------------------------5~--3-5-6--6-5-3--6-5-3--6-5-3-0----------|

e|-------------------------------------------------------------------|
B|-------------------------------------------------------------------|
G|-------------------------------------------------------------------|
D|-------3-0--4-------3-0--3---------------------------------------0-| 
A|-3-5-5--------3-5-5-------3-5-5-0--------------------------------0-|
D|----------------------------------5~--3-5-6--6-5-3--6-5-3--6-5-3-0-|

                         
e|-------------------------------------------------------------------|
B|-------------------------------------------------------------------|
G|-------------------------------------------------------------------| 
D|-1-1--0-----1-1--0------1-1--0------1-1----------------------------| 
A|-1-1--0-----1-1--0------1-1--0------1-1----------------------------|
D|-1-1--0-----1-1--0------1-1--0------1-1----------------------------|




Tap to rate this tab
 
# A B C D E F G H I J K L M N O P Q R S T U V W X Y Z