Song name
# A B C D E F G H I J K L M N O P Q R S T U V W X Y Z

Channel Zero - Suck My Energy tab

Band: Channel Zero
Song: Suck my Energy
Album: Unsafe
Tabbed by: diskwriter


/* LEGEND */

h : Hammer on
p : Pull off
/ : Slide to (up)
\ : Slide to (down)
- : Muted note
( ): optional
~ : let ring
br: Bend and release


TUNING: Drop D
Intro: distortion

e |-----------------------------------|
b |-----------------------------------|
g |-----------------------------------|      Repeat 4x, then:
d |--3-3-3-3-3-3-3-3-3-3-3-3-4-3-4-3--|
a |-----------------------------------|
d |-----------------------------------|

e |-------------------------------------------------------------------|
b |-------------------------------------------------------------------|
g |-------------------------------------------------------------------|
d |--(3)/10-10-10-10-10-10-10-10-10-10-10-10-13-13-13-13-\9-9-9-9-9-9-|
a |-------------------------------------------------------------------|
d |-------------------------------------------------------------------|

e |-----------------------|
b |-----------------------|
g |-----------------------|      Repeat 2x, then back to:
d |--9-9-9-9-9-9-9-9-9-9--|
a |-----------------------|
d |-----------------------|

e |-----------------------------------|
b |-----------------------------------|
g |-----------------------------------|      Repeat 2, then back to:
d |--3-3-3-3-3-3-3-3-3-3-3-3-4-3-4-3--|
a |-----------------------------------|
d |-----------------------------------|

e |-------------------------------------------------------------------|
b |-------------------------------------------------------------------|
g |-------------------------------------------------------------------|
d |--(3)/10-10-10-10-10-10-10-10-10-10-10-10-13-13-13-13-\9-9-9-9-9-9-|
a |-------------------------------------------------------------------|
d |-------------------------------------------------------------------|

e |-----------------------|
b |-----------------------|
g |-----------------------|      Repeat 4x, end on:
d |--9-9-9-9-9-9-9-9-9-9--|
a |-----------------------|
d |-----------------------|

e |-----
b |-----
g |-----      (let ring, drum fill.)
d |--3~-
a |--3~-
d |--3~-

Chorus riff: Distortion

e |----------------------------------------------------------|
b |----------------------------------------------------------|
g |----------------------------------------------------------|
d |--3-3-4-4-3-3~-3-4-4-3-3-1-1~--/3-3-4-4-3-3~-4\3-3\1-1p0--|
a |--3-3-4-4-3-3~-3-4-4-3-3-1-1~--/3-3-4-4-3-3~-4\3-3\1-1p0--|
d |--3-3-4-4-3-3~-3-4-4-3-3-1-1~--/3-3-4-4-3-3~-4\3-3\1-1p0--|

Verse riff: Distortion

e |------------------------------------------------------|
b |------------------------------------------------------|
g |------------------------------------------------------|
d |--3---3-----5~-4~--6~--3~~-3----5~-4~-4--/8~-8-8--(0)-|
a |--3---3-----3~-2~--6~--3~~-3----3~-2~-2--/6~-6-6--(0)-|
d |--3~~-3-(0)--------6~--3~~-3-(0)-------------------0--|

Solo: distortion

e |----------------------------------------------------|
b |----------------------------------------------------|
g |---------------------------------------     Repeat--| 4x
d |--10-10-10-10-10-10-13-13-13-9br-9-8br--------------|
a |----------------------------------------------------|
d |----------------------------------------------------|


Enjoy!
Tap to rate this tab
 
# A B C D E F G H I J K L M N O P Q R S T U V W X Y Z