Song name
# A B C D E F G H I J K L M N O P Q R S T U V W X Y Z

Channel Zero - Help tab

Titel: Help
Artiest: channel zero
Album: unsafe

Tabbed by: Diskwriter

/* LEGEND */

h : Hammer on
p : Pull off
/ : Slide to (up)
\ : Slide to (down)
- : Muted note
( ): optional
~ : let ring


Intro/Verse: clean

e |--------------------------------------------------|
b |--------------------------------------------------|
g |----------3------------- 0 -----------------------|       Repeat.
d |----3-h5----5-3-h5------(5)-----------------------|
a |-------------------4~ 4-----4-3~ 3----------------|
e |--3-------------------------------1/(3)-3---------|


Chorus: distortion

e |--------------------------------------|
b |-------------------- -----------------|
g |-------------------- 6~ \5~-----------|     Repeat.
d |--5~ 5--4~ 4-x-5~ 5--6~ \5~-----------|
a |--5~ 5--4~ 4-x-5~ 3--4~ \3~-----------|
e |--3~ 3--2~ 2-x-3~ 3---------(0)-------|


Bridge: distortion

e |-----------------------------------------------------------------------------|
b |-----------------------------------------------------------------------------|
g |----------3------------- 0 ---------------       Repeat 4x , then switch to--|
d |----3-h5----5-3-h5------(5)--------------------------------------------------|
a |-------------------4~ 4-----4-3~ 3-------------------------------------------|
e |--3-------------------------------1/(3)-3------------------------------------|

e |-------------------------------------------------------|
b |-------------------------------------------------------|
g |-------------------------------------------------------|
d |-----------------------------------------      Repeat--| 4x
a |--5~ 5555--4~ 4--5~ 5555--8~ 8-x-10--------------------|
e |--3~ 3333--2~ 2--3~ 3333--6~ 6-x-8---------------------|
        ----           -----------------------------------|

Outro: distortion

e |-------------------------------------------------------|
b |-------------------------------------------------------|
g |----------3~ ~ ~ ---(light bend)-----------------------|      Repeat.
d |----3-h5-----------------------------------------------|
a |--------------------------------4-h5-4~~ (vibrato------|
e |--3--------------------------3-------------------------|

ENJOY !
Tap to rate this tab
 
# A B C D E F G H I J K L M N O P Q R S T U V W X Y Z