Song name
# A B C D E F G H I J K L M N O P Q R S T U V W X Y Z

Channel Zero - Heroin tab

Titel: Heroin
Artiest: channel zero
Album: unsafe

Tabbed by: Diskwriter

/* LEGEND */

h : Hammer on
p : Pull off
/ : Slide to (up)
\ : Slide to (down)
- : Muted note
( ): optional
~ : let ring

TUNING: Drop D
Intro/verse: Distortion

e |----------------------|
b |----------------------|
g |----------------------|    Repeat 3x, then:
d |----------------------|
a |----5-----------------|
d |--0---0-3-0-5-0-6-0-5-|

e |----------------------|
b |----------------------|
g |----------------------|    Repeat, back to start.
d |----------------------|
a |----5-----------------|
d |--0---0-6-0-33333-/55-|

Chorus: Distortion

e |--------------------------------------------------|
b |--------------------------------------------------|
g |--------------------------------------------------|     Repeat.
d |--7~-7-7--(0)--3~-/5-6~-0~~-0-0-3~-/5-6-5-0-------|
a |--5~-5-5--(0)--3~-/5-6~-0~~-0-0-3~-/5-6-5-0-------|
d |----------(0)--3~-/5-6~-0~~-0-0-3~-/5-6-5-0-------|


Bridge: Distortion

e |------------------------------------------------------|
b |------------------------------------------------------|
g |------------------------------------------------------|     Repeat 2x; then:
d |--0-3-0-3-0-3--0-3-0-3-0-3--0-3-0-3-0-3--0-3-0-3-5-6--|
a |--0-3-0-3-0-3--0-3-0-3-0-3--0-3-0-3-0-3--0-3-0-3-5-6--|
d |--0-3-0-3-0-3--0-3-0-3-0-3--0-3-0-3-0-3--0-3-0-3-5-6--|
                  -            -
e |----------------------------|
b |----------------------------|
g |----------------------------|
d |--0-3-0-3-0-3--0-3-0-3-0-3--|  (All muted)
a |--0-3-0-3-0-3--0-3-0-3-0-3--|
d |--0-3-0-3-0-3--0-3-0-3-0-3--|

e |------------------------------------------------------|
b |------------------------------------------------------|
g |------------------------------------------------------|     Repeat 2x; then:
d |--0-3-0-3-0-3--0-3-0-3-0-3--0-3-0-3-0-3--0-3-0-3-5-6--|
a |--0-3-0-3-0-3--0-3-0-3-0-3--0-3-0-3-0-3--0-3-0-3-5-6--|
d |--0-3-0-3-0-3--0-3-0-3-0-3--0-3-0-3-0-3--0-3-0-3-5-6--|
                  -            -
e |---------------------------------|
b |---------------------------------|
g |--14~~~~~~13~~~~~14~~~~~~17~~~~~~    (Pick these notes really really fast, listen to the
d |---------------------------------|     song for the right timing.)
a |---------------------------------|
d |---------------------------------|

Break: Distortion

e |-----------------|
b |-----------------|
g |-----------------|     (All muted,  pick the last open D string fast.
d |-----------------|      Listen to the song for timing. Repeat 16x)
a |-----------------|
d |--3p0-3p0-0~~~~~-|

2nd Bridge: Distortion:

e |------------------------------------------------------|
b |------------------------------------------------------|
g |------------------------------------------------------|     Repeat 2x; then:
d |--0-3-0-3-0-3--0-3-0-3-0-3--0-3-0-3-0-3--0-3-0-3-5-6--|
a |--0-3-0-3-0-3--0-3-0-3-0-3--0-3-0-3-0-3--0-3-0-3-5-6--|
d |--0-3-0-3-0-3--0-3-0-3-0-3--0-3-0-3-0-3--0-3-0-3-5-6--|
                  -            -
e |------------------|
b |------------------|
g |------------------|     (Al muted)
d |--0-0-0-0--00000--|
a |--0-0-0-0--00000--|
d |--0-0-0-0--00000--|
Tap to rate this tab
 
# A B C D E F G H I J K L M N O P Q R S T U V W X Y Z