Song name
# A B C D E F G H I J K L M N O P Q R S T U V W X Y Z

Channel Zero - Bad To The Bone tab

Title: Bad To The Bone
Artist: channel zero
Album: unsafe

Tabbed by: Diskwriter

/* LEGEND */

h : Hammer on
p : Pull off
/ : Slide to (up)
\ : Slide to (down)
m : Muted note
( ): optional
~ : let ring


TUNING: DROP D
Intro: Distortion

e |---------------------------------------------------------------|
b |---------------------------------------------------------------|
g |---------------------------------------------------------------|  Repeat 4x
d |--7--x--5--------------------------5---4---3-------------------|
a |--5--x--3--------------------------5---4---3-------------------|
d |-----------0m0m0m0m0m0m0m0m0mm0m0m-5-0-4-0-3-0m0m0m0m0m0m0m0m--|

e |-------------------------|
b |-------------------------|
g |-------------------------|   Repeat 3x, then:
d |--3-0-0--0-4-0-0--0-5-4--|
a |--3-0-0--0-4-0-0--0-5-4--|
d |--3-0-0--0-4-0-0--0-5-4--|

e |-----------------------|
b |-----------------------|
g |-----------------------|   Stop after the G, pause, then into the verse.
d |--3-0-0--0-4-0-0--0-5--|
a |--3-0-0--0-4-0-0--0-5--|
d |--3-0-0--0-4-0-0--0-5--|

Verse1: Distortion

e |-------------------------|
b |-------------------------|
g |-------------------------|   Repeat 8x
d |--3-0-0--0-4-0-0--0-5-4--|
a |--3-0-0--0-4-0-0--0-5-4--|
d |--3-0-0--0-4-0-0--0-5-4--|

Chorus: Distortion

e |---------------------------------------------------------------|
b |---------------------------------------------------------------|
g |---------------------------------------------------------------|  Repeat 3x
d |--7--x--5--------------------------5---4---3-------------------|
a |--5--x--3--------------------------5---4---3-------------------|
d |-----------0m0m0m0m0m0m0m0m0mm0m0m-5-0-4-0-3-0m0m0m0m0m0m0m0m--|

e |------------------------------------------------------------|
b |------------------------------------------------------------|
g |------------------------------------------------------------|
d |--7--x--5--------------------------5--4--3--0---------------|
a |--5--x--3--------------------------5--4--3--0---------------|
d |-----------0m0m0m0m0m0m0m0m0mm0m0m-5--4--3--0--0m-0m0m0m0m--|

Verse 2: Distortion

e |-------------------------|
b |-------------------------|
g |-------------------------|   Repeat 3x, then:
d |--3-0-0--0-4-0-0--0-5-4--|
a |--3-0-0--0-4-0-0--0-5-4--|
d |--3-0-0--0-4-0-0--0-5-4--|

e |-----------------------|
b |-----------------------|
g |-----------------------|   Stop after the G, pause, then continue.
d |--3-0-0--0-4-0-0--0-5--|
a |--3-0-0--0-4-0-0--0-5--|
d |--3-0-0--0-4-0-0--0-5--|

e |-------------------------|
b |-------------------------|
g |-------------------------|   Repeat 8x
d |--3-0-0--0-4-0-0--0-5-4--|
a |--3-0-0--0-4-0-0--0-5-4--|
d |--3-0-0--0-4-0-0--0-5-4--|

Interlude: Distortion

e |-------------------|
b |-------------------|
g |-------------------|    Repeat 3x, then:
d |--7--5--0-6-7-5-0--|
a |--5--3--0-6-7-3-0--|
d |--------0-6-7---0--|

e |-------------------|
b |-------------------|
g |-------------------|    Repeat back from the beginning
d |--7--8--0-6-7-8-0--|    Play this riff faster and faster, then play the chorus again.
a |--5--6--0-6-7-6-0--|
d |--------0-6-7---0--|

After the chorus, you play:
e |-----------------------|
b |-----------------------|
g |-----------------------|   Stop after the G, pause, then continue. (repeat 4x)
d |--3-0-0--0-4-0-0--0-5--|   then:
a |--3-0-0--0-4-0-0--0-5--|
d |--3-0-0--0-4-0-0--0-5--|

e |-------------------------|
b |-------------------------|
g |-------------------------|   All notes muted, repeat 8x
d |-------------------------|   Then:
a |-------------------------|
d |--3-0-0--0-4-0-0--0-5-4--|

e |--------------------------------------------------------|
b |--------------------------------------------------------|
g |--------------------------------------------------------|   Repeat 4x
d |--3-0-0--0-4-0-0--0-5-4---------------------------------|
a |--3-0-0--0-4-0-0--0-5-4---------------------------------|
d |--3-0-0--0-4-0-0--0-5-4--3m-0m-0m--0m-4-0m-0m-0m-5m-4m--|

After this one more short chorus, and that's it!
Tap to rate this tab
# A B C D E F G H I J K L M N O P Q R S T U V W X Y Z