Song name
# A B C D E F G H I J K L M N O P Q R S T U V W X Y Z

Channel Zero - As A Boy tab

Title: As A Boy
Artist: channel zero
Album: unsafe

Tabbed by: diskwriter


/* LEGEND */

h : Hammer on
p : Pull off
/ : Slide to (up)
\ : Slide to (down)
m : Muted note
( ): optional
~ : let ring
br: Bend and release


TUNING: DROP D !
Intro: Heavy Distortion

e |-------------------------------------------------------------------|
b |-------------------------------------------------------------------|
g |----------7-----------6-------------------5-----------4------------|  (4x)
d |------7-9---9-7-9-6-8---8-6-----------5-7---7-5-7-4-6---6-4--------|
a |--7-9-----------------------8-6-8-5-7-----------------------6-4-6--|
d |-------------------------------------------------------------------|

1st Verse: Distortion

e |-------------------------|
b |-------------------------|
g |-------------------------|     Repeat 4x
d |--0--3--0-5-0-6-0-5-0-3--|
a |--0--3--0-5-0-6-0-5-0-3--|
d |--0--3--0-5-0-6-0-5-0-3--|

1st Chorus: Distortion

e |---------------------------------|
b |---------------------------------|
g |---------------------------------|      Repeat 4x, end on:
d |---------7~----5----6----5----3--|
a |--0m-0m--5~-0m-5-0m-6-0m-5-0m-3--|
d |--0m-0m-----0m-5-0m-6-0m-5-0m-3--|

e |---------|
b |---------|
g |---------|
d |---------|
a |---------|
d |--0m-0m--|

Verse 2 & 3: Distortion   (these two verses follow right after each other)

e |---------------------------------------------------------|
b |---------------------------------------------------------|
g |---------------------------------------------------------|      Repeat 2x
d |---------------------------------------------------------|
a |---------------------------------------------------------|
d |--0-0-0-00-00000000-0-0-0-00-000-6666-0-0-0-00-000-3333--| (All these notes are muted)

e |-------------------------|
b |-------------------------|
g |-------------------------|    Repeat 3x, then
d |------7------------5--6--|
a |------5------------3--6--|
d |--0-0---0-0--0-0-0----6--| (All open D strings muted)

e |----------------------|
b |----------------------|
g |----------------------|
d |------7-----8-88-888--|
a |------5-----6-66-666--|
d |--0-0---(00)----------|

2nd Chorus: Distortion

e |-------------------------|
b |-------------------------|
g |-------------------------|     Repeat 4x
d |--0--3--0-5-0-6-0-5-0-3--|
a |--0--3--0-5-0-6-0-5-0-3--|
d |--0--3--0-5-0-6-0-5-0-3--|

e |---------------------------------|
b |---------------------------------|
g |---------------------------------|      Repeat 4x, end on:
d |---------7~----5----6----5----3--|
a |--0m-0m--5~-0m-5-0m-6-0m-5-0m-3--|
d |--0m-0m-----0m-5-0m-6-0m-5-0m-3--|

e |-------|
b |-------|
g |-------|
d |--0~---|
a |--0~---|
d |--0~---|

Solo/Interlude: Distortion

e |-----------------------------------------------------------|
b |--13br-13-13~--10-13-10-13br-10----------------------------|
g |--------------------------------12-12br-10-12-12br-10------|   (1st time)
d |------------------------------------------------------12~--|
a |-----------------------------------------------------------|
d |-----------------------------------------------------------|

e |--------------------------------------------------------------------------|
b |--10-13-10-13br-13-13~--10-13-10-13br-10----------------------------------|
g |-----------------------------------------12-12br-10-12-12br-10------------|   3x
d |---------------------------------------------------------------12-12(b)~--|
a |--------------------------------------------------------------------------|
d |--------------------------------------------------------------------------|

End the solo by sliding really slowly to 0 on the D string.

Chorus 3/ Ending: Distortion

e |-------------------------|
b |-------------------------|
g |-------------------------|     Last time, you play,
d |--0--3--0-5-0-6-0-5-0-3--|
a |--0--3--0-5-0-6-0-5-0-3--|
d |--0--3--0-5-0-6-0-5-0-3--|

e |--------------------------------|
b |--------------------------------|
g |--------------------------------|
d |--0--3--0-5-0-6-0-5-0-3~--------|
a |--0--3--0-5-0-6-0-5-0-3~--0m0m--|
d |--0--3--0-5-0-6-0-5-0-3~--0m0m--|
Tap to rate this tab
 
# A B C D E F G H I J K L M N O P Q R S T U V W X Y Z