Song name
# A B C D E F G H I J K L M N O P Q R S T U V W X Y Z

Chantal Kreviazuk - Today chords

Highlighted       Show chord diagrams
It's amazing that I couldn't find the chords for this song. So after listening and 
spending a while doing it over and over and over again, haha. It's done and I even created my 
own intro based on the chords. Please rate :) Thanks and enjoy.

-Standard tuning-
Intro:
(listen to the song to get the feel of it so you know timing and whatnot, I created my 
own intro, but if you hear the song first,  you'll get it)

e--------------------------------------3---]
b------------------------------------------]
g--2--2------2--2-----------------------0--]
d-2--2---2--3--3---3---2--2----------------]
a---------------------3--3---3------2------]
E--------------------------------0h3-------]
Repeat 2x
on second time, hold last note.


Alternative intro:

e-----------------------------------3------]
b-----------------------------------0------]
g-2-2-2-----2-2-2----------------------0---]
d-2-2-2--2--3-3-3--3--2-2-2----------------]
a---------------------3-3-3--3----2--------]
E-------------------------------3----------]
Repeat 2x
on second time, hold last note.



Verse 1:

Am
The sun hits your face

F
Wide open space

C
Forest is bare

    G
Cut everywhere

Am
There's no one around

F
Just the faces and clouds

C                      G
And the heart's that's breaking


Refrain:

Am                 F                        C------G-
You're not exactly where you're supposed to be

--G   Am                F             C---G
  But tomorrow's done a lot for guarantees


Chorus:

Am                F                    C--
Today's, today's, today's the greatest day

C           G
Today's the greatest day

2x


*Do whatever you want between verses, or nothing.*


Verse 2:

Am
Chasing the ground

F
All twisted around

C
It's not what you've lost

     G
It's what you've found

Am
Eyes of a child

             F
It's getting harder to smile

C               G
You're an angel of his dreams


Refrain:

Am                       F                  C----G-
You tell yourself you're not quite what you seem


-G   Am                  F           C      G
 But one more chance and you will be redeemed



Chorus 3x then end with the intro or just hold the G chord in the last chorus.
Tap to rate this tab
 
# A B C D E F G H I J K L M N O P Q R S T U V W X Y Z