Song name
# A B C D E F G H I J K L M N O P Q R S T U V W X Y Z

Chantal Kreviazuk - Julia chords

Highlighted       Show chord diagrams
Chantal Kreviazuk - Julia
Capo 3rd   A = x02255  A7/G = 3x2223  D/F# = 200232  [ch]Dm/F[/ch] = 1x0231  
          E = 022100   Asus = x02230

Intro 
 A         | A7/G     |D/F#      | [ch]Dm/F[/ch]  E     ||
---5----5--|--3-----3-|---2----2-|---1----0----|
------5----|-----5----|-------5--|--3------0-0-|
-2--2-----0|---0-----0|----------|-------------|
-----------|----------|-4---4----|-3----2---2--|
-----------|----------|----------|-------------|
-----------|----------|----------|-------------|

A         A7/G       D/F#     [ch]Dm/F[/ch]  E     
Ah ah-ah-ah   ah-ah-ahhh  ah  ahhh
A         A7/G       D/F#     [ch]Dm/F[/ch]  E     
Ah ah-ah-ah   ah-ah-ahhh  ah  ahhh


Verse 1
          A             Asus   A7/G              Asus7/G
     ----------------------------|-------------------|
     -----2------------2h3p2---2-|---------------2h3-|
     -----2------------2-------2-|---------------2---|
     -----2------------2-------2-|---------------2---|
     -----0------------0---------|-------------------|
     --------------------------3-|---------------3---|
Well you looked so at peace tryin to find real love

       D5                  [ch]Dm/F[/ch]               E
     -------------------------|-----------------0---|
     --3------------2h3-----3-|----3------------0---|
     --2------------2-------2-|----2--------1---1---|
     --0------------0-------0-|----0--------2---2---|
     --0------------0---------|-------------2---2---|
     -----------------------1-|----1--------0---0---|
Your hair was like a fire, such a pretty woman

           A                 Asus  A7/G          Asus
 You were hiding out in the open, searching so hard
        D5                    [ch]Dm/F[/ch]                E
 For a kiss that lasts forever there on the boulevard


Chorus*                            (*full chords in chorus)
        A              A7/G
 Do they use ya and then lose ya?
        D/F#              [ch]Dm/F[/ch]  E
 When ya get scared again? no
           A        A7/G
 They could never for-get you
               D/F#                  [ch]Dm/F[/ch]  E
 But they could say they said your name       Julia

 A         A7/G       D/F#     [ch]Dm/F[/ch]  E     
 Ah ah-ah-ah   ah-ah-ahhh  ah  ahhh

Verse 2
               A            Asus       A7/G          Asus7/G
 Well there's gotta be somebody gets what it is you do
   D5                 [ch]Dm/F[/ch]                             E
 Knows about the business, somebody who can see through
  A            Asus   A7/G           Asus7/G
 Someone unaffected, someone unashamed
         D5              [ch]Dm/F[/ch]                            E
 Of his woman being worshipped when he's not in the frame


Chorus
        A               A7/G
 Do they use ya and then lose ya?
        D/F#              [ch]Dm/F[/ch]  E
 When ya get scared again? no
           A        A7/G
 They could never for-get you
               D/F#                  [ch]Dm/F[/ch]  E
 But they could say they said your name
       A         A7/G       D/F#     [ch]Dm/F[/ch]  E
 Julia                     (Julia)
        A    A7/G      D/F#    [ch]Dm/F[/ch]  E
 Do they use ya and then lose ya?
        A    A7/G      D/F#    [ch]Dm/F[/ch]  E
 Do they use ya and then lose ya?

        A               A7/G
 Do they use ya and then lose ya?
        D/F#              [ch]Dm/F[/ch]  E
 When ya get scared again? no
           A        A7/G
 They could never for-get you
               D/F#                  [ch]Dm/F[/ch]  E
 But they could say they said your name     oh oh
        A               A7/G
 Do they use ya and then lose ya?
        D/F#              [ch]Dm/F[/ch]  E
 When ya get scared again? no
           A        A7/G
 They could never for-get you
               D/F#                  [ch]Dm/F[/ch]  E
 But they could say they said your name     
       A         A7/G       D/F#     [ch]Dm/F[/ch]  E     
 Julia Ah ah-ah-ah   ah-ah-ahhh  ah  ahhh
                    (Ju--li--a)
       A         A7/G       D/F#     [ch]Dm/F[/ch]  E     
 Julia Ah ah-ah-ah   ah-ah-ahhh  ah  ahhh
       A         A7/G       D/F#     [ch]Dm/F[/ch]  E     
 Julia Ah ah-ah-ah   ah-ah-ahhh  ah  ahhh
Tap to rate this tab
 
# A B C D E F G H I J K L M N O P Q R S T U V W X Y Z