Song name
# A B C D E F G H I J K L M N O P Q R S T U V W X Y Z

Chaos Uk - Dont Talk To Me tab

Band - Choas UK
Song - Don't Talk To Me (GG Allin Cover)
Album - Been There Done That

Tabbed By - SumFX (Tyler Freear)

An OK Cover Of GG Allin's Best Track.

It Is Kept Similar To The Original :)

I Have Added The Bass For It As Well!

----------------------------------
           Guitar
----------------------------------

Verse
|--------------------|
|--------------------|
|-9-9--7-7-------9-9-|
|-9-9--7-7--7-7--9-9-|
|-7-7--5-5--7-7--7-7-|
|-----------5-5------|

Chorus
|---------------------|
|---------------------|
|-9999-7777------9999-|
|-9999-7777-7777-9999-|
|-7777-5555-7777-7777-|
|-----------5555------|

Break
|---------------|
|---------------|
|---------------|
|---------------|
|-7--5-------7--|
|--------5------|

----------------------------------
            Bass
----------------------------------
 
Verse
|--------------------|
|--------------------|
|-7-7--5-5-------7-7-|
|-----------5-5------|

Chorus
|------------------------|
|------------------5-7-5-|
|-7777-5555------7-------|
|-----------5555---------|

Break
|---------------------|---------------------|
|---------------------|---------------5-7-5-|
|-777-555-----7-5-7-5-|-777-555-----7-------|
|---------555---------|---------555---------|



There You Go!

Rate & Comments Please!
Tap to rate this tab
# A B C D E F G H I J K L M N O P Q R S T U V W X Y Z