Song name
# A B C D E F G H I J K L M N O P Q R S T U V W X Y Z

Chaos Uk - The Alcoholic tab

the alcoholic - chaos uk

intro
|-------------------------------------------------------------------------|
|-------------------------------------------------------------------------|
|---------------------------------------------7^--------------------------|
|--9----------------------------------------------------------------------|
|--7----------------------------------------------------------------------|
|-------------------------------------------------------------------------|
    I'm an alcoholic          And I just love the kick! I'm dribblin my words, got a glazy
|-------------------------------------------------------------------------|
|-------------------------------------------------------------------------|
|-------------------------------------------------------------------------|
|--7^---------------------------------------------------------------------|
|---------------------------------------------9---------------------------|
|---------------------------------------------7---------------------------|
   Stare          Cuz I'm addicted to thing called beeeeeeeeeeeeeeeeeeeeeer!
verse
|-----------------------------------------------------------------------|
|-----------------------------------------------------------------------|
|-----------------------------------------------------------------------|
|--------7-7-----7-7----------------------------------------------------|
|----9-9-5-5-9-9-5-5-7-7-7-7-9-9-9-9------------------------------------|
|----7-7-----7-7-----5-5-5-5-7-7-7-7------------------------------------|

(verse 1)
Feel uptight, don't feel right Got no money to see me through the night
Head's spinnin', feel a mess Feel my worst, tryin' to act my best
Got sick on my trousers, got sick on the floor Fallin asleep, I'm beginning to snore
Got to get home, it's the only way But I don't know my fucking way

(verse 2)
Woke up this morning with the sun In me eyes Woke up in the garden, what a surprise
Half-eaten kebab stuck to my head I wish I was asleep in my bed
Cuz now I'm lying here with an aching liver In a cold sweat, I'm begging to shiver
Falling asleep in the trash Now I got a nasty rash


chorus
|-------------------------------------|
|-------------------------------------|
|-------------------------------------|
|---7-7-7-7---------------------------|
|---5-5-5-5-7-7-7-7-9-9-9-9-9-9-9-9---|
|-----------5-5-5-5-7-7-7-7-7-7-7-7---|
    Cuz I'm an alcoholic!

|-------------------------------------|
|-------------------------------------|
|-------------------------------------|
|---7-7-7-7---------------------------|
|---5-5-5-5-7-7-7-7-9-9-9-9-9-9-9-9---|
|-----------5-5-5-5-7-7-7-7-7-7-7-7---|
    And I just love the kick!

|-------------------------------------|
|-------------------------------------|
|-------------------------------------|
|---7-7-7-7---------------------------|
|---5-5-5-5-7-7-7-7-9-9-9-9-9-9-9-9---|
|-----------5-5-5-5-7-7-7-7-7-7-7-7---|
    I'm dribblin my words, got a glazy stare

|---------------------------------------|
|---------------------------------------|
|---------------------------------------|
|----7----------------------------------|
|----5-------7---------9\---------------|
|------------5---------7\---------------|
      Cuz I'm addicted to beer!
ending
|--------------------------------------------------------------------------|
|--------------------------------------------------------------------------|
|--14-14-14-14-14-14-14-14-------------------------------------------------|
|--------------------------14-14-14-14-14-14-14-14-16-16-16-16-16-16-16-16-|
|--------------------------------------------------------------------------|
|--------------------------------------------------------------------------|
    I'm                       addicted                   to beer
|--------------------------------------------------------------------------|
|--------------------------------------------------------------------------|
|--14-14-14-14-14-14-14-14-------------------------------------------------|
|--------------------------14-14-14-14-14-14-14-14-16-16-16-16-16-16-16-16-|
|--------------------------------------------------------------------------|
|--------------------------------------------------------------------------|
    Cuz I'm                   addicted                   to beer

by: cachorro
Tap to rate this tab
 
# A B C D E F G H I J K L M N O P Q R S T U V W X Y Z