Song name
# A B C D E F G H I J K L M N O P Q R S T U V W X Y Z

Chaos Uk - Ronnie Was A Rebel tab

Tuning - standared

VERSE
----------------------------------------------------------|
----------------------------------------------------------|
----------------------------------------------------------|
----------5-55555-77-57-----------------------------------|
--7-77777-3-33333-55-35-77777-----------------------------|
--5-55555---------------55555-----------------------------|

Other Bit
----------------------------------------------------------|
----------------------------------------------------------|
----------------------------------------------------------|
---99999------------9-99----------------------------------|
---77777-101010-----7-77-101010---121212------------------|
---------88888-----------8-88-----101010------------------|

You want some punk rock?
You want some REAL punk rock?
No.
Tap to rate this tab
# A B C D E F G H I J K L M N O P Q R S T U V W X Y Z