Song name
# A B C D E F G H I J K L M N O P Q R S T U V W X Y Z

Chaos Uk - No Security tab

This song is alright
anyway i think this is like 100 % but there is like this sort of distorted solo were the 
player just plays random cords on the bottom strings
Bass line is first
then pick slide

e|------------------------------------------------------|
B|------------------------------------------------------|
G|------------------------------------------------------|
D|----33333333-----88888888--66666666----55555555   X 3-|
A|----33333333-----88888888--66666666----55555555-------|
E|----11111111-----66666666--44444444----33333333-------|

e|-----------------------------------------------|
B|-----------------------------------------------|
G|-----------------------------------------------|
D|----33333333-----8-6-5-------------------------|
A|----33333333-----8-6-5-------------------------|
E|----11111111-----6-4-3-------------------------|

e|-----------------------------------------------|
B|-----------------------------------------------|
G|--------------111111111111--13-11-10-----------|
D|---88888888---111111111111--13-11-10-----------|   X 4
A|---88888888----9-9-9-9-9-9--11--9--8-----------|
E|---66666666------------------------------------|


AND YEAH YOU WILL GET THE POINT ITS AN EASY SONG
Tap to rate this tab
 
# A B C D E F G H I J K L M N O P Q R S T U V W X Y Z