Song name
# A B C D E F G H I J K L M N O P Q R S T U V W X Y Z

Chaotic Distortion - No More Of Your Control tab

-------------------------------------------------------------------------------
			     SONG NAME - Band Name
-------------------------------------------------------------------------------
Tabbed by:Jarred (member of the band)
Email:

Tuning:standerd

e|-------------------INTRO-----------------------------------------------------|
B|-----------------------------------------------------------------------------|
G|-----------------------------------------------------------------------------|
D|-----------------------------------------------------------------------------|
A|-----------------------------------------------------------------------------|
E|-003--005--007----009b--003-005-007-0011b-x2-0-11-10-8-----------------------|
veus#1
e|----------------------

B|-----------------------------------------------------------------------------|
G|-----------------------------------------------------------------------------|
D|-----------------------------------------------------------------------------|
A|-----------------------------------------------------------------------------|
E|----003-005-007-003b-003-005-007-005b-003-005-007-007b-x3--------------------|
chourus
e|-----------------------------------------------------------------------------|
B|-----------------------------------------------------------------------------|
G|-----------------------------------------------------------------------------|
D|7p0-8p0-9p0-x3----7p0-6p0-5p0-x3----5p0-4p0-3p0x3----------------------------|
A|-----------------------------------------------------------------------------|
E|-----------------------------------------------------------------------------|

veuus:
e|-----------------------------------------------------------------------------|
B|-----------------------------------------------------------------------------|
G|-----------------------------------------------------------------------------|
D|-----------------------------------------------------------------------------|
A|-----------------------------------------------------------------------------|
E|------003-005-007-003b-003-005-007-005b-003-005-007-007b-x3------------------|
chourus
e|-----------------------------------------------------------------------------|
B|-----------------------------------------------------------------------------|
G|-----------------------------------------------------------------------------|
D|--------7p0-8p0-9p0-x3----7p0-6p0-5p0-x3----5p0-4p0-3p0x3--------------------|
A|-----------------------------------------------------------------------------|
E|-----------------------------------------------------------------------------|
pre-solo (jarred)
e|------------------------------79------------------------------------------|
B|------------------------79------------------------------------------------|
G|------------------79------------------------------------------------------|
D|-----------79-------------------------------------------------------------|
A|------79------------------------------------------------------------------|
E|--7-9---------------------------------------------------------------------|
solo: DO WHAT YOU WANT FOR THE SOLO!!!!!!!
e|---------------------------------------------------------------------------|
B|---------------------------------------------------------------------------|
G|---------------------------------------------------------------------------|
D|---------------------------------------------------------------------------|
A|---------------------------------------------------------------------------|
E|---------------------------------------------------------------------------|
chourus
e|-----------------------------------------------------------------------------|
B|-----------------------------------------------------------------------------|
G|-----------------------------------------------------------------------------|
D|------7p0-8p0-9p0-x6----7p0-6p0-5p0-x6----5p0-4p0-3p0x6----------------------|
A|-----------------------------------------------------------------------------|
E|-----------------------------------------------------------------------------|


************************************

| /   slide up
| \   slide down
| h   hammer-on
| p   pull-off
| ~   vibrato
| +   harmonic
| x   Mute note
| b   Bend
| pb  Pre-bend
| br  Bend release
| pbr Pre-bend release
| brb Bend release bend

************************************
Tap to rate this tab
 
# A B C D E F G H I J K L M N O P Q R S T U V W X Y Z