Guitaretab - guitar tabs
Song name
# A B C D E F G H I J K L M N O P Q R S T U V W X Y Z

Chapman Tracy - Unsung Psalm tab

Date: Sun, 16 May 2004

Unsung Psalm - Tracy Chapmam
Tabbed by: Miguel da Silva
Timing: 3/4

Intro

E|--------|--------|2---2---|2^3p2--0----|
B|1---1---|1--0--3-|--------|----------3-|
G|---0---0|--0--0--|--------|------------|
D|--------|--------|---0---0|--------0--0|
A|--------|--------|--------|------------|
E|--------|--------|--------|------------|

E|--------|--------|2-------|------------|
B|1---1---|1--0--3-|--------|------------|
G|---0---0|--0--0--|--------|------------|
D|--------|--------|--------|------------|
A|--------|--------|--------|------------|
E|--------|--------|--------|------------|

Verses

E|--------|--------|2---2---|2^3p2--0----|
B|1---1---|1--0--3-|--------|----------3-|
G|---0---0|--0--0--|--------|------------|
D|--------|--------|---0---0|--------0--0|
A|--------|--------|--------|------------|

E|--------|--------|2---2---|2^3p2--0----|
B|1---1---|1--0--3-|--------|----------3-|
G|---0---0|--0--0--|--------|------------|
D|--------|--------|---0---0|--------0--0|
A|--------|--------|--------|------------|
E|--------|--------|--------|------------|

E|--------|--------|2---2---|2^3p2--0----|
B|1---1---|1--0--3-|--------|----------3-|
G|---0---0|--0--0--|--------|------------|
D|--------|--------|---0---0|--------0--0|
A|--------|--------|--------|------------|
E|--------|--------|--------|------------|

E|0----0--|2----2--|3-------|------------|
B|--------|--------|--------|------------|
G|----0---|----0---|--------|------------|
D|--------|--------|--------|------------|
A|--------|--------|--------|------------|
E|--------|--------|--------|------------|

Bridge

E|--------|--------|3----3--|3-2--0------|
B|3----3--|1----1--|--------|-------3-0--|
G|--------|--------|--------|-----------0|
D|----0---|----0---|---0----|------------|
A|--------|--------|--------|------------|
E|--------|--------|--------|------------|

E|--------|--------|3----3--|3-2--0------|
B|3----3--|1----1--|--------|-------3-0--|
G|--------|--------|--------|-----------0|
D|----0---|----0---|---0----|------------|
A|--------|--------|--------|------------|
E|--------|--------|--------|------------|
[ Tab from: http://www.guitaretab.com/c/chapman-tracy/21302.html ]
E|--------|--------|3----3--|3-2--0------|
B|3----3--|1----1--|--------|-------3-0--|
G|--------|--------|--------|-----------0|
D|----0---|----0---|---0----|------------|
A|--------|--------|--------|------------|
E|--------|--------|--------|------------|

E|0----0--|2----2--|3-------|------------|
B|--------|--------|--------|------------|
G|----0---|----0---|--------|------------|
D|--------|--------|--------|------------|
A|--------|--------|--------|------------|
E|--------|--------|--------|------------|


Chords

    C     D     E    E/F#  E/G

E|--0--|--2--|--0--|--2--|--3--|
B|--1--|--3--|--0--|--0--|--0--|
G|--0--|--2--|--0--|--0--|--0--|
D|--2--|--0--|--2--|--2--|--2--|
A|--3--|--x--|--2--|--2--|--2--|
E|--3--|--x--|--0--|--0--|--0--|



               C                D 
there would be psalms sung by a choir
                     C                 D
i would have a white robe a halo newly acquired
          C                       D
i'd be at peace and i'd have no desire
	     E	    E1	  E2
if i'd lived right

there would be cherubs with tiny harps arrows and bows
i'd have a halo and a flowing white robe
i'd be enfolded by a celestial light
if i'd lived right


but i'm feeling hot and bothered under the collar
i feel the sweat breaking out on my brow
i feel the heat and i know it's the passion
the love i can't disavow


if this is a dream wake me up now
if this is a movie let's edit these scenes out
it would be a pg instead of an x rated life
if i'd lived right


some would call me a cheat call me a liar
say that i've been defeated by the basest desired
yes i have strayed and succumbed to my vices
but i tried to live right


but i have no regrets no guilt in my heart
i only feel sadness for any pain that i've caused
i guess i wouldn't bother to worry at all
if i'd lived right


do you live by the book do you play by the rules
do you care what is thought by others about you
if this day is all that is promised to you
do you life for the future the present the past


if there is one thing i know i know i will die
if anyone cares some stranger my critique my life
i may be revered or defamed and decried
but i tried to live right


there would be psalms sung by a choir
i would have a white robe a halo newly acquired
i'd be at peace and i'd have no desire
if i'd lived right
Related for Unsung Psalm tab
Unsung Psalm chords by Chapman Tracy