Song name
# A B C D E F G H I J K L M N O P Q R S T U V W X Y Z

Charlatans - How Can You Leave Us tab

e|--------------5-2--------5-2-------------------|
b|---------2-5------5-2-5------5-2-----------2---|
g|-----2-4-------------------------4-2---2-----2-|
d|-2-4---------------------------------4---4-----|
a|-----------------------------------------------|
E|-----------------------------------------------|

e|-------------5-2-----------------------|
b|-----------------5-2-5----------3-3--2-|
g|----2-----2-------------4-2---2-4-4--2-|
d|-2h4---2h4------------------4----------|
a|---------------------------------------|
E|---------------------------------------|

Thank to Read
Tap to rate this tab
# A B C D E F G H I J K L M N O P Q R S T U V W X Y Z