Song name
# A B C D E F G H I J K L M N O P Q R S T U V W X Y Z

Charlatans - Youre Not Very Well tab

The Charlatans - You're Not Very Well

Intro/Verses:

Bass transferred to guitar:

e|-----------|
B|-----------|
G|-----------|
D|-----7-5-3-|
A|-3-5-------|
E|-----------|

Chorus:

e|-7-77--5-5--7-77--5-5--7-77--5-5--7-77--5-5--7-77--|
B|-8-88--7-7--8-88--7-7--8-88--7-7--8-88--7-7--8-88--|
G|-9-99--7-7--9-99--7-7--9-99--7-7--9-99--7-7--9-99--|
D|-9-99--7-7--9-99--7-7--9-99--7-7--9-99--7-7--9-99--|
A|-7-77--5-5--7-77--5-5--7-77--5-5--7-77--5-5--7-77--|
E|-------5-5--------5-5--------5-5--------5-5--------|

Repeats the verses and choruses

Solo:

e|-17-------13-------------------------------|
B|----13-15----------------------------------|
G|-------------14-12----12-------------------|
D|-------------------15----15-12----12-15-12-|
A|-------------------------------15----------|
E|-------------------------------------------|

pt2.

e|-17-------13----------------------------------------------|
B|----13-15-------------------------------------------------|
G|-------------14-12----12----------------------------------|
D|-------------------15----15-12----12-15-12----------------|
A|-------------------------------15----------15-12----------|
E|-------------------------------------------------15-13-11-|


Bridge:

e|-------------------------------------------------------------------|
B|-------------------------------------------------------------------|
G|-------------------4-4-4-4-4-4-4-4-----------------4-4-4-4-4-4-4-4-|
D|-4-4-4-4-4-4-4-4-4-4-4-4-4-4-4-4-4-4-4-4-4-4-4-4-4-4-4-4-4-4-4-4-4-|
A|-4-4-4-4-4-4-4-4-4-2-2-2-2-2-2-2-2-4-4-4-4-4-4-4-4-2-2-2-2-2-2-2-2-|
E|-2-2-2-2-2-2-2-2-2-----------------2-2-2-2-2-2-2-2-----------------|

pt2.

e|-------------------------------------|
B|-------------------------------------|
G|-2-2-2-2-2-2-2-2-4-4-4-4-4-4-4-4-----|
D|-2-2-2-2-2-2-2-2-4-4-4-4-4-4-4-4-4\\-|
A|-0-0-0-0-0-0-0-0-2-2-2-2-2-2-2-2-4\\-|
E|---------------------------------2\\-|

repeat verse and chorus

end with:

e|-7-7-7-|
B|-8-8-8-|
G|-9-9-9-|
D|-9-9-9-|
A|-7-7-7-|
E|-0-0-0-|

Thanks for reading

~~Kenubinin~~
Tap to rate this tab
# A B C D E F G H I J K L M N O P Q R S T U V W X Y Z