Song name
# A B C D E F G H I J K L M N O P Q R S T U V W X Y Z

Charlatans - Tremelo Song tab

The Charlatans
Tremelo Song
Between 10th and 11th


Verse: F#m7 B6
riff:       F#m7 B6                             F#
e|-2-4-2-2-2-2-2-2-2-2-2-2-2-2-2-2-2-2-------------------------|
B|-3-5-3-5-3-5-3-5-3-5-3-5-3-5-3-5-3-5-------------------------|
G|-2-2-2-2-2-2-2-2-2-2-2-2-2-2-2-2-2-2-------------------------|
D|-4-4-4-4-4-4-4-4-4-4-4-4-4-4-4-4-4-4--4-4-4-4-4-4-4-4-4-4-4--| repeat
A|--------------------------------------4-4-4-4-4-4-4-4-4-4-4--|
E|--------------------------------------2-2-2-2-2-2-2-2-2-2-2--|


Chorus:
         Bm                     E         F#
e|-2-2-2-2-2-2-2-2-2-2-2---------------2-2-2-2-2--
B|-3-3-3-3-3-3-3-3-3-3-3----0-0-0-0-0--2-2-2-2-2--
G|-4-4-4-4-4-4-4-4-4-4-4----1-1-1-1-1--3-3-3-3-3--
D|-4-4-4-4-4-4-4-4-4-4-4----2-2-2-2-2--4-4-4-4-4--
A|-2-2-2-2-2-2-2-2-2-2-2----2-2-2-2-2--4-4-4-4-4--
E|-----------------------xx-0-0-0-0-0--2-2-2-2-2--

 Bm
I wonder why, you bleach the sky
     E                 F#
You could not break these strings of mine 
   Bm                             E                F#              Bm
I never knew, to walk back to. A place that now belongs to you in body.

Repeat Verse

Repeat Chorus

Solo:

e|-----7-5-7p5h7------7-5---5-5-5-5----7-5-7-9-7-5----5-5-5-5----7-5-7-9-7-5-----|
B|-5-7------------5-7------5-5-5-5--5/7------------7-5-5-5-5-5/7-------------7/3-|
G|-------------------------------------------------------------------------------|
D|-------------------------------------------------------------------------------|
A|-------------------------------------------------------------------------------|
E|-------------------------------------------------------------------------------|

Bridge:

e|---5---4------------|
B|-7-------5----7-0---|
G|--------------------|
D|--------------------| repeat
A|--------------------|
E|--------------------|

repeat chorus

End with:

e|---2--0--2--0---2--0-2--0--|
B|-----3-----3------3----3---|
G|-4--4---4-4---4--4--4-4--4-|
D|---------------------------|
A|---------------------------|
E|---------------------------|
Tap to rate this tab
# A B C D E F G H I J K L M N O P Q R S T U V W X Y Z