Song name
# A B C D E F G H I J K L M N O P Q R S T U V W X Y Z

Charlatans - Feel The Pressure tab

Feel the Pressure
The Charlatans
Up At the Lake

Intro:

e|-----------------------------|
B|-----------------------------|
G|-X-9--11-11-11--X------------|
D|-X-9--11-11-11--X-12-12--7-9-| REPEAT
A|-X-7--9--9--9---X-12-12--7-9-|
E|----------------X-10-10--5-7-|

Verse: (I'm not sure about the verse)

e|------------------|
B|------------------|
G|----------7-7-----|
D|-9-9-9-9------7-9-|REPEAT
A|------------------|
E|------------------|

Chorus 1:

e|---------------------------------------------------------|
B|---------------------------------------------------------|
G|------------------------------------------------14141414-|
D|-2222-4444-7777-9999-12121212-14141414-16161616----------|
A|---------------------------------------------------------|
E|---------------------------------------------------------|

Intro riff

Verse riff

Chorus 2:

e|-----------------------------------------------------------------------------------------------|
B|-----------------------------------------------------------------------------------------------|
G|------------------------------------------------14141414-15b-15b-15b\-15b-15b-15b\-15b-15b-15b\|
D|-2222-4444-7777-9999-12121212-14141414-16161616------------------------------------------------|
A|-----------------------------------------------------------------------------------------------|
E|-----------------------------------------------------------------------------------------------|

Intro riff

Verse 3: no guitar

Chorus 3: same chorus 2 but repeat


Thank you for read this tab, I hope help (:
Tap to rate this tab
# A B C D E F G H I J K L M N O P Q R S T U V W X Y Z