Song name
# A B C D E F G H I J K L M N O P Q R S T U V W X Y Z

Charlatans - Crashin In tab

The Charlatans
Crashin'in
The Charlatans


Intro:

e|---3---0----------|  |---3---0---555~~--|
B|---3---3-------2~-|  |---3---3---555~~--|
G|---0--2--2-----2~-|  |---0--2--2-666~~--|
D|-----0----0--2-2~-|2X|-----0-----777~~--|
A|--2----------0-0~-|  |--2---------------|
E|-3----------------|  |-3----------------|

"All ready to get on my way..."

e|-5-5-5-55-2-2-2-22-3-3-3-33-2-2-2-22-|
B|-5-5-5-55-2-2-2-22-3-3-3-33-2-2-2-22-|
G|-6-6-6-66-2-2-2-22-4-4-4-44-2-2-2-22-|
D|-7-7-7-77-4-4-4-44-5-5-5-55-4-4-4-44-|
A|-7-7-7-77-4-4-4-44-5-5-5-55-4-4-4-44-|
E|-5-5-5-55-2-2-2-22-3-3-3-33-2-2-2-22-|

"One of these days you'll hear..."

e|-2-2-2-22-5-5-5-55-2-2-2-22-2-2-2-22-|
B|-2-2-2-22-5-5-5-55-2-2-2-22-2-2-2-22-|
G|-4-4-4-44-7-7-7-77-2-2-2-22-2-2-2-22-|
D|-4-4-4-44-7-7-7-77-4-4-4-44-4-4-4-44-|
A|-2-2-2-22-5-5-5-55-4-4-4-44-4-4-4-44-|
E|-------------------2-2-2-22-2-2-2-22-|

"All your friends are driving round..."

e|-5-5-5-55-2-2-2-22-3-3-3-33-2-2-2-22-|
B|-5-5-5-55-2-2-2-22-3-3-3-33-2-2-2-22-|
G|-6-6-6-66-2-2-2-22-4-4-4-44-2-2-2-22-|
D|-7-7-7-77-4-4-4-44-5-5-5-55-4-4-4-44-|
A|-7-7-7-77-4-4-4-44-5-5-5-55-4-4-4-44-|
E|-5-5-5-55-2-2-2-22-3-3-3-33-2-2-2-22-|

"One of these days you'll fell..."

e|-2-2-2-22-5-5-5-55-2-2-2-22-2-2-2-22-|
B|-2-2-2-22-5-5-5-55-2-2-2-22-2-2-2-22-|
G|-4-4-4-44-7-7-7-77-2-2-2-22-2-2-2-22-|
D|-4-4-4-44-7-7-7-77-4-4-4-44-4-4-4-44-|
A|-2-2-2-22-5-5-5-55-4-4-4-44-4-4-4-44-|
E|-------------------2-2-2-22-2-2-2-22-|

"I can go for miles and miles and miles and miles and miles"

e|-1-1-1-11-1-11-1--|
B|-1-1-1-11-1-11-1--|
G|-2-2-2-22-2-22-2--|
D|-3-3-3-33-3-33-3--|
A|-3-3-3-33-3-33-3--|
E|-1-1-1-11-1-11-1--|

"Oh yeah..."

e|-----------------------------------------|
B|-----------------------------------------|
G|-/12-/14-/12-/14-/12-/14-/12-------------|
D|----------------------------------5-7b-5-|
A|------------------------------5-7--------|
E|-----------------------------------------|

e|-5-5-5-55-2-2-2------------------------xx----------10---10---12---10----|
B|-5-5-5-55-2-2-2------------------------xx--10-7--7----7----7----7----10-|
G|-6-6-6-66-2-2-2--5-4-2---2------2----2-xx-------------------------------|
D|-7-7-7-77-4-4-4--------4---4-2h4--2h4--xx-------------------------------|
A|-7-7-7-77-4-4-4------------------------xx-------------------------------|
E|-5-5-5-55-2-2-2------------------------xx-------------------------------|

e|-2-2-2-22-5-5-5-55-2-2-2-22-2-2-2-22-|
B|-2-2-2-22-5-5-5-55-2-2-2-22-2-2-2-22-|
G|-4-4-4-44-7-7-7-77-2-2-2-22-2-2-2-22-|
D|-4-4-4-44-7-7-7-77-4-4-4-44-4-4-4-44-|
A|-2-2-2-22-5-5-5-55-4-4-4-44-4-4-4-44-|
E|-------------------2-2-2-22-2-2-2-22-|

"All dressed up to get on my way..."

e|-5-5-5-55-2-2-2-22-3-3-3-33-2-2-2-22-|
B|-5-5-5-55-2-2-2-22-3-3-3-33-2-2-2-22-|
G|-6-6-6-66-2-2-2-22-4-4-4-44-2-2-2-22-|
D|-7-7-7-77-4-4-4-44-5-5-5-55-4-4-4-44-|
A|-7-7-7-77-4-4-4-44-5-5-5-55-4-4-4-44-|
E|-5-5-5-55-2-2-2-22-3-3-3-33-2-2-2-22-|

"One of these days you'll fell..."

e|-2-2-2-22-5-5-5-55-2-2-2-22-2-2-2-22-|
B|-2-2-2-22-5-5-5-55-2-2-2-22-2-2-2-22-|
G|-4-4-4-44-7-7-7-77-2-2-2-22-2-2-2-22-|
D|-4-4-4-44-7-7-7-77-4-4-4-44-4-4-4-44-|
A|-2-2-2-22-5-5-5-55-4-4-4-44-4-4-4-44-|
E|-------------------2-2-2-22-2-2-2-22-|


"I can go for miles and miles and miles and miles and miles"

e|-1-1-1-11-1-11-1--|
B|-1-1-1-11-1-11-1--|
G|-2-2-2-22-2-22-2--|
D|-3-3-3-33-3-33-3--|
A|-3-3-3-33-3-33-3--|
E|-1-1-1-11-1-11-1--|

"Oh yeah..."

e|-----------------------------------------|
B|-----------------------------------------|
G|-/12-/14-/12-/14-/12-/14-/12-------------|
D|----------------------------------5-7b-5-|
A|------------------------------5-7--------|
E|-----------------------------------------|

e|-5-5-5-55-2-2-2-22-|
B|-5-5-5-55-2-2-2-22-|
G|-6-6-6-66-2-2-2-22-|
D|-7-7-7-77-4-4-4-44-|8x
A|-7-7-7-77-4-4-4-44-|
E|-5-5-5-55-2-2-2-22-|

"See me I can feel it coming around..."

e|-----------------------------|
B|-----------------------------|
G|-/12-/14-/12-/14-/12-/14-/12-|
D|-----------------------------|
A|-----------------------------|
E|-----------------------------|



Thank you for read

alvinhorafael@hotmail.com

KENUBININ
Tap to rate this tab
 
# A B C D E F G H I J K L M N O P Q R S T U V W X Y Z