Song name
# A B C D E F G H I J K L M N O P Q R S T U V W X Y Z

Charlatans - My Foolish Pride tab

The Charlatans - My Foolish Pride - Who We Touch - 2010


Verse:

e|-3-3-3-3-3-3-3-3------------------|
B|-3-3-3-3-3-3-3-3-7-7-7-7-7-7-7-7--|
G|-4-4-4-4-4-4-4-4-x-x-x-x-x-x-x-x--|
A|-5-5-5-5-5-5-5-5-x-x-x-x-x-x-x-x--|
D|-----------------5-5-5-5-5-5-5-5--|
E|----------------------------------|

Pre Chorus:

e|-6~------------6~-----------|
B|-6~------------6~-----------|
G|-7~-8~-5~-10~--7~-8~-5~-12~-|
D|-8~-8~-5~-10~--8~-8~-5~-12~-|
A|-8~-6~-3~-8~~--8~-6~-3~-10~-|
E|-6~------------6~-----------|

Chorus:

e|-----------------4-4-4-4-4-----------|
B|-----------------4-4-4-4-4-----------|  
G|-8-8-8-8-8-8-8-8-5-5-5-5-5-8-8-8-8-8-|
D|-8-8-8-8-8-8-8-8-6-6-6-6-6-8-8-8-8-8-|2x
A|-6-6-6-6-6-6-6-6-6-6-6-6-6-6-6-6-6-6-|
E|-----------------4-4-4-4-4-----------|

e|--------------------------------------4~~--6~~--|
B|--------------------------------------4~~--6~~--|
G|-55555555-44444444-33333333-22222222--5~~--7~~--|
D|-55555555-44444444-33333333-22222222--6~~--8~~--|
A|-33333333-22222222-11111111-00000000--6~~--8~~--|
E|--------------------------------------4~~--6~~--|


Repeat


Thank you for read it!
Tap to rate this tab
 
# A B C D E F G H I J K L M N O P Q R S T U V W X Y Z