Song name
# A B C D E F G H I J K L M N O P Q R S T U V W X Y Z

Charlatans - Bad Days tab

Bass Intro 
1st verse


 Em                   D         G         Bm
e|-------------------------------------------------------| 
B|-------------------------------------------------------| 
G|-------------------------------------------------------|  
D|-------------------------------------------------------| x4
A|-------------------------------------------------------|  
E|-0--0--0-0--10--10--10-10-10--3--3--3-3-3--7--7--7-7-7-|  

1st verse
            Em
I get these bad days baby
     D
I just don't know
           G
I'm in my own world honey
Bm
I don't know
            Em
And You can play me
     D
In a world of fools
            G                            Bm
Cause You know that You're no friend of mine

2nd verse
              C
I get these bad dreams lately
I just don't know
           Bm
There's a death cloud hanging
over You
          C
It's been too long since I
                              Bm
told You You're no friend of mine


synth
   Em    D   G     Bm
e|-------------------------------------------------------| 
B|-5--7-3-3---------3---3--------------------------------| 
G|-----------4--2-4---4----------------------------------|  x2
D|-------------------------------------------------------|
A|-------------------------------------------------------|  
E|-------------------------------------------------------|  


1st verse
synth
2nd verse
synth

chrous

Em        D              G Bm   Em       D             G     Bm
Playing dead under the covers, I don't feel like ever waking up
Em        D              G Bm   Em       D             G     Bm
Playing dead under the covers, I don't feel like ever waking up



Em                          Bm
Oh We could never be desperate
    C
I feel
                        Bm
So much younger than yesterday

bass solo and acoustic guitar
    Em           Bm
e|---------------------------| 
B|---------------------------| 
G|---------------------------|  
D|---------------------------| x4
A|---------------------------|  
E|-0--0--0-0-0-5-7--7-5-3----|  


1st verse
2nd verse
Outro (same chords Em D G Bm)

synt
e|---------------------------| 
B|-8-10-7--------------------| (very slightly)
G|---------------------------|
D|---------------------------|
A|---------------------------|
E|---------------------------|
Tap to rate this tab
# A B C D E F G H I J K L M N O P Q R S T U V W X Y Z