Song name
# A B C D E F G H I J K L M N O P Q R S T U V W X Y Z

Charlatans - Blackened Blue Eyes tab

----------------------------------------------------------------------------
			     Blackened Blue Eyes - The Charlatans
----------------------------------------------------------------------------

Tabbed by: Leo C

Tuning: Standard

NOTE: There's not much guitar in the song as it is mostly played by
piano. Because of this, I have only tabbed out the bits that are played by
the guitar, and have not converted the piano part to guitar.

Intro:

NOTE: piano plays this part really, although you can strum a single
F chord to start it off.

e|---|
B|---|
G|---|
D|-3-|
A|-3-|
E|-1-|

And then it's:

e|-13131313\6--13131313\6--13131313\6--13131313\6-|
B|-13131313\6--13131313\6--13131313\6--13131313\6-|
G|-13131313----13131313----13131313----13131313---|
D|-15151515----15151515----15151515----15151515---|
A|-15151515----15151515----15151515----15151515---|
E|------------------------------------------------|

e|-------------------------------------------------|
B|-13----------13----------13----------13----------|
G|----13----13----13----13----13----13----13----13-|
D|-------15----------15----------15----------15----|
A|-------------------------------------------------|
E|-------------------------------------------------|

e|-----------------------------------|
B|-13-13-13-13-1313-13-13-13-13-1313-|
G|-13-12-13-12-1312-13-12-13-12-1312-|
D|-15-15-15-15-1515-15-15-15-15-1515-|
A|-----------------------------------|
E|-----------------------------------|

Verse:

e|-13131313\6-|
B|-13131313\6-|
G|-13131313---| x2
D|-15151515---|
A|-15151515---|
E|------------|

e|-------------------------------------------------|
B|-13----------13----------13----------13----------|
G|----13----13----13----13----13----13----13----13-|
D|-------15----------15----------15----------15----|
A|-------------------------------------------------|
E|-------------------------------------------------|

e|-13131313\6-|
B|-13131313\6-|
G|-13131313---| x2
D|-15151515---|
A|-15151515---|
E|------------|

e|-------------------------------------------------|
B|-13----------13----------13----------13----------|
G|----13----13----13----13----13----13----13----13-|
D|-------15----------15----------15----------15----|
A|-------------------------------------------------|
E|-------------------------------------------------|

e|-----------------------------------|
B|-13-13-13-13-1313-13-13-13-13-1313-|
G|-13-12-13-12-1312-13-12-13-12-1312-|
D|-15-15-15-15-1515-15-15-15-15-1515-|
A|-----------------------------------|
E|-----------------------------------|

Chorus:

e|------------------------------------------|
B|------------------------------------------|
G|-----------------66666666-----------------|
D|-1010101010101010666666666666666688888888-|
A|-1010101010101010444444446666666688888888-|
E|--8-8-8-8-8-8-8-8--------4444444466666666-|

e|---------------------------------------|
B|---------------------------------------|
G|-----------------66668888--------------|
D|-1010101010101010666688883333333333333-|
A|-1010101010101010444466663333333333333-|
E|--8-8-8-8-8-8-8-8--------1111111111111-|

Alternatively, instead of the low F chord repeated at the end of the chorus,
you can play the high one that was played earlier.
In short, this:


e|-13131313\6-|
B|-13131313\6-|
G|-13131313---| x2
D|-15151515---|
A|-15151515---|
E|------------|

NOTE: this part is optional


Repeat Verse

Repeat Chorus

Bridge:

e|------------------------------------------------------------------|
B|------------------------------------------------------------------|
G|------------------------------------------------------------------|
D|-1515151515151515131313131313131313131313131313131010101010101010-|
A|-1515151515151515131313131313131313131313131313131010101010101010-|
E|-131313131313131311111111111111111111111111111111-8-8-8-8-8-8-8-8-|

e|--------------------------------------------------|
B|--------------------------------------------------|
G|--------------------------------------------------|
D|-151515151515151513131313131313131313131313131313-|
A|-151515151515151513131313131313131313131313131313-|
E|-131313131313131311111111111111111111111111111111-|

e|---------|---|
B|---------|---|
G|---------|---|
D|-33---33-|-3-|
A|-33---33-|-3-|
E|-11---11-|-1-|

Piano is played to end the bridge, so the last F is optional.

Repeat Verse

Chorus 2:

e|------------------------------------------|
B|------------------------------------------|
G|-----------------66666666-----------------|
D|-1010101010101010666666666666666688888888-|
A|-1010101010101010444444446666666688888888-|
E|--8-8-8-8-8-8-8-8--------4444444466666666-|

e|------------------------------------------|
B|------------------------------------------|
G|-----------------66666666-----------------|
D|-1010101010101010666666666666666688888888-|
A|-1010101010101010444444446666666688888888-|
E|--8-8-8-8-8-8-8-8--------4444444466666666-|

e|------------------------------------------|
B|------------------------------------------|
G|-----------------66666666-----------------|
D|-1010101010101010666666666666666688888888-|
A|-1010101010101010444444446666666688888888-|
E|--8-8-8-8-8-8-8-8--------4444444466666666-|

e|---------------------------------------|
B|---------------------------------------|
G|-----------------66668888--------------|
D|-1010101010101010666688883333333333333-|
A|-1010101010101010444466663333333333333-|
E|--8-8-8-8-8-8-8-8--------1111111111111-|

Outro:

e|-13131313\6-|
B|-13131313\6-|
G|-13131313---| x4
D|-15151515---|
A|-15151515---|
E|------------|

e|-13131313\6-|
B|-13131313\6-|
G|-13131313---| x4 NOTE: These come closer together
D|-15151515---|
A|-15151515---|
E|------------|

End on:

e|---|
B|---|
G|---|
D|-3-|
A|-3-|
E|-1-|


Legend:

\ = slide down

=============================================================================

I really love this song, and was surprised to see that no-one else had tabbed this song
Shame really, because it's quality. I'm pretty sure this tab is almost spot on. Hope you
it. I HAVEN'T posted the rhythm, as that is up to you to sort out. Saying that, the song 
easy to get into, and really doesn't take long to play.

Enjoy.
Tap to rate this tab
# A B C D E F G H I J K L M N O P Q R S T U V W X Y Z