Song name
# A B C D E F G H I J K L M N O P Q R S T U V W X Y Z

Charlatans - Another Rider Up In Flames tab

---------------------------------------------------------------
     Another Rider Up In Flames  - The Charlatans (UK)
---------------------------------------------------------------

Tuning: Standard

Intro / Verse

e|------------------------------------------5--5--------------|  
B|-------5------7------5--------------------5--5--------------|  
G|---5---5--7---7--5---5------5-------------6--6--------------|  
D|---5h7----7h9----5h7----5---5-------------7--7--------------|  
A|------------------------5h7----7h5--------7--7---------5--7-|  
E|------------------------------------7--5--5--5--5--7--------|  

e|------------------------------------------------------------|
B|-----5-------7------5---------------------------------------|
G|-5---5--7----7--5---5------5--------------------------------|
D|-5h7----7h9-----5h7----5---5--------------------------------|
A|-----------------------5h7---7h5----------------------------|
E|----------------------------------7--5----------------------|


Middle of Verse (Play first chord with muted notes in between
then last two chords)

e|--5--10--7--------------------------------------------------|
B|--5--10--7--------------------------------------------------|
G|--5--11--8--------------------------------------------------|
D|--7--12--9--------------------------------------------------|
A|--7--12--9--------------------------------------------------|
E|--5--10--7--------------------------------------------------|

Chorus / Outro

e|---5--7--3--5--5--7--8---10---------------------------------|
B|---5--8--5--7--5--8--8---10---------------------------------|
G|---5--9--5--7--5--9--9---11---------------------------------|
D|---7--9--5--7--7--9--10--12---------------------------------|
A|---7--7--3--5--7--7--10--12---------------------------------|
E|---5-----------5-----8---10---------------------------------|


| /  slide up
| \  slide down
| h  hammer-on
| p  pull-off
| ~  vibrato
| +  harmonic
| x  Mute note
===============================================================
Tap to rate this tab
# A B C D E F G H I J K L M N O P Q R S T U V W X Y Z