Song name
# A B C D E F G H I J K L M N O P Q R S T U V W X Y Z

Charlene Soraia - Bike tab

I structured this tab as 
well as I could, there's
just so much to cover, twas 
hard to simplify it.


Standard Tuning

Intro

-------12----------------|
-------12--10-----9h10p9-|
-------11--11------------|
---------------11--------|
-----------9------9------|
-2/-10---x---------------|
         *Thumb slap (kinda)

-----------------------|
-----12--10-----9h10p9-|
-----11--11------------|
-------------11--------| x2
---------9------9------|
--10---x---------------|

------------------|
-----12-12---10\--|
-----11-11---11\--|
------------------| 
-----------9------|
--10--------------|


Verse

----12----------------|
----12--10-----9h10p9-|
----11--11------------| x alot
------------11--------|
--------9------9------|
-10---x---------------|

-------------|
-----12-10\--|
-----11-11\--|
-------------| 
---------9---|
--10---------|

Right before the chorus
There's this slide

----|
----|
----|
----|
-2/-|
----|


Chorus


---------------------|
----14-----14--------|
----14----14---------|
----14---14----------|
-12-----12--------12-|
------x-------12-----|

------------------|
---10-----10------|
---11----11-------|
---11---11--------|
-9-----9--------9-|
-----x-------9----|


Fill

-------------|
-10-10-10-10-|
-11-11-11-11-|
-------------|
--9--9--9--9-|
-------------|

I'll admit, I'm not
entirely sure on this
part.

Back to Verse, then
a variation:

----12----------------|
----12--12-----9h10p9-|
----11---9------------|
--------11--11--------|
---------9-----9------|
-10---x---------------|


Back to chorus

Then verse again


Bridge

----------------------------------|
----------------------------------|
-----------------7/9--9--7--------|
----9-7----7--9--9/11-11-9^-7---9-|
---------9--------------------9---|
-7--------------------------------|


--------------------------------------|
-------------------------7---7--------|
-----------------7/9--7--7h9-7-7/9--7-|
----9-7----7--9--9/11-9--------9/11-9-|
---------9----------------------------|
-7------------------------------------|


-------------------------------------------|
----------------------------7-7---7--------|
-----------------7/9--9--7--7-7h9-7-7/9--7-|
----9-7----7--9--9/11-11-9^---------9/11-9-|
---------9---------------------------------|
-7-----------------------------------------|

------------------------------------------|
------------------------------------------|
------------------------------------------|
-7--7--7----------------9---9---9---11-11-|
-9--9--9-7h8h9----------------------------|
---------------7--7---7---7---7---9-----9-|



----12--------------|
----12--10----------|
----11--11----------|
------------11------|
--------9------0----|
-10---x-------------|

----12--------------|
----12--12----------|
----11---9----------|
--------11--11------|
---------9-----0----|
-10---x-------------|

----12------10\9-9\8-8\7-7\6-6\5-|
----12--10---9\8-8\7-7\6-6\5-5\4-|
----11--11--10\9-9\8-8\7-7\6-6\5-|
-------------9\8-8\7-7\6-6\5-5\4-|
--------9------------------------|
-10---x--------------------------|


------------------| 
----10----14--14^-|
---11-----14--14--|  
--11------14--14--|
-9--------12--12--|
------------------|


----------------------| 
----10----14--14--14\-|
---11-----14--14--14\-|  
--11------14--14--14\-|
-9--------12--12--12\-|
----------------------|

Back to chorus


Outro

--------------------------------------------|
--------------------------------------------|
-------16-14~~-------16-14~~------16-14h16^-|
------16------------16-----------16---------|
-----16------------16-----------16----------|
-14------------14-----------14--------------|
Tap to rate this tab
# A B C D E F G H I J K L M N O P Q R S T U V W X Y Z