Song name
# A B C D E F G H I J K L M N O P Q R S T U V W X Y Z

Charles Bronson - Silenced tab

-------------------------------------------------------------------------------
			     Silenced - Charles Bronson
-------------------------------------------------------------------------------
Tabbed by:Sergio b@tches
Email:mexpnk323@aol.com

Tuning:standard

you fing out the strumming this is the what u play

Intro/verse
e|------------------------------------------------------------------|
B|------------------------------------------------------------------|
G|------------------------------------------------------------------|
D|-------9----------------------------------------------------------|
A|-7--8--7--10--6--5------------------------------------------------|
E|-5--6-----8---4--3------------------------------------------------|

Blastbeats!!!!!
e|------------------------------------------------------------------|
B|------------------------------------------------------------------|
G|------------------------------------------------------------------|
D|---7---6---5------------------------------------------------------|
A|-7-5-6-4-5-3------------------------------------------------------|
E|-5---4---3--------------------------------------------------------|
Tap to rate this tab
 
# A B C D E F G H I J K L M N O P Q R S T U V W X Y Z