Song name
# A B C D E F G H I J K L M N O P Q R S T U V W X Y Z

Charles Bronson - Whats Wrong With Me tab

|-------------------------------------------------------|
|-------------------------------------------------------|
|-------------------------------------------------------| (x4)
|-44-44-443-77-6----------------------------------------|
|-22-22-221-55-4----------------------------------------|
|-------------------------------------------------------|

|-------------------------------------------------------|
|-------------------------------------------------------|
|-------------------------------------------------------| (x4)
|-------------------------------------------------------|
|-44444444-443-77-6-------------------------------------|
|-22222222-221-55-4-------------------------------------|

|-------------------------------------------------------|
|-------------------------------------------------------|
|-7-77-77-----------------------------------------------|
|-5-55-55-----------------------------------------------|
|----------5-55-55-7-77-77--10-9-10-9-------------------|
|----------3-33-33-5-55-55--8--7-8--7-------------------|

|-------------------------------------------------------|
|-------------------------------------------------------|
|-7-77-77-----------------------------------------------|
|-5-55-55-----------------------------------------------|
|----------5-55-55-7-77-77--9999999999999999------------|
|----------3-33-33-5-55-55--7777777777777777------------|

|-------------------------------------------------------|
|-------------------------------------------------------|
|-------------------------------------------------------| (x4)
|-44-44-443-77-6----------------------------------------|
|-22-22-221-55-4----------------------------------------|
|-------------------------------------------------------|

End With
|-------------------------------------------------------|
|-------------------------------------------------------|
|-------------------------------------------------------|
|-44-44-443-77-6--4-------------------------------------|
|-22-22-221-55-4--2-------------------------------------|
|-------------------------------------------------------|
Tap to rate this tab
 
# A B C D E F G H I J K L M N O P Q R S T U V W X Y Z