Song name
# A B C D E F G H I J K L M N O P Q R S T U V W X Y Z

Charles Bronson - What The Fuck Are You Gonna Do When Its Cool To Be Yourself tab

Intro and Main Riff
|---------x5--|
|-------------|
|-------------|
|-----7-8-9---|
|-666-576879--|
|-444--5-6-7--|

After Main Riff
|---------------x4--|
|-------------------|
|-------------------|
|-------------------|
|-6-6-6-6/10101010--|
|-4-4-4-4/8-8-8-8---|

Breakdown (I'm not to sure about this)
|---------------x5--|------|
|-------------------|------|
|-------------------|------|
|---6----5----8-----|------|
|-664-5553-8886-555-|-7--6-|
|-44--333--666--333-|-5--4-|

Back to Main Riff
|---------x4--|
|-------------|
|-------------|
|-----7-8-9---|
|-666-576879--|
|-444--5-6-7--|

If you gotta it figured out, and it sounds better than mine. Tab it out.
Tap to rate this tab
 
# A B C D E F G H I J K L M N O P Q R S T U V W X Y Z