Song name
# A B C D E F G H I J K L M N O P Q R S T U V W X Y Z

Charles Bronson - Obligatory Jock Slaughter Song tab

Band - Charles Bronson
Song - Jock Slaughter Song
Tabbed By : Evan Fiber (Thanks 2 Robby)

Intro/Verse

|------------------------|
|------------------------|
|----7-8-5---------------|
|-7--7-8-5---------------|
|-7--5-6-3---------------|
|-5----------------------|

Chorus:

|------------------------|
|------------------------|
|------------------------|
|-999----777-------------|
|-999----777-------------|
|-777----555-------------|

They might play it different but it sounds right
Tap to rate this tab
 
# A B C D E F G H I J K L M N O P Q R S T U V W X Y Z