Song name
# A B C D E F G H I J K L M N O P Q R S T U V W X Y Z

Charles Bronson - Cant Take This tab

-------------------------------------------------------------------------------
			      CAN'T TAKE THIS- Charles Bronson
-------------------------------------------------------------------------------
Tabbed by:snowmotion
Email:paulpryan

Tuning: Standard (EADGBe)

Intro:
e|---------------------------------------------------------------------------|
B|---------------------------------------------------------------------------|
G|---------------------------------------------------------------------------|
D|----------------------------------------------------------7-7-7-7-7-7-7----|
A|-5-5-0-5-7-0---9-9-7-9-9-10-5---9-9-7-5-7-9-5-5-5-5-5-5-5-7-7-7-7-7-7-7----|
E|----------------------------------------------------------5-5-5-5-5-5-5----|

Riff 1:
e|-----------------------------------------------|
B|-----------------------------------------------|
G|-----------------7-7-7-7-7-7-7-7-----------5---|
D|-7-7-7-7-7-7-7-7-7-7-7-7-7-7-7-7-5-5-5-5-3-5---|
A|-7-7-7-7-7-7-7-7-5-5-5-5-5-5-5-5-5-5-5-5-3-3---|
E|-5-5-5-5-5-5-5-5-----------------3-3-3-3-1-----|

Riff 2:
e|---------------------------------------------------------------------------|
B|---------------------------------------------------------------------------|
G|-----------------10-10-10-10-10-10-10-10-5-5-5-5-5-5-5-5-------------------|
D|-7-7-7-7-7-7-7-7-10-10-10-10-10-10-10-10-5-5-5-5-5-5-5-5-5-5-5-5-5-5-5-5---|
A|-7-7-7-7-7-7-7-7-8--8--8--8--8--8--8--8--3-3-3-3-3-3-3-3-5-5-5-5-5-5-5-5---|
E|-5-5-5-5-5-5-5-5-----------------------------------------3-3-3-3-3-3-3-3---|

Slow part:
e|-----------------------------------------|
B|-----------------------------------------|
G|---------7-7-x-x-------------------------|
D|-7-7-x-x-7-7-x-x-5-5-x-x-3-3-3-x-3-3-3---|
A|-7-7-x-x-5-5-x-x-5-5-x-x-3-3-3-x-3-3-3---|
E|-5-5-x-x---------3-3-x-x-1-1-1-x-1-1-1---|

Back to riff 1 and end on 

e|---|
B|---|
G|---|
D|-7-|
A|-7-|
E|-5-|

I think this is pretty accurate, corrections welcome though.
Bronson rule, twisted sister suck!

************************************

| /   slide up
| \   slide down
| h   hammer-on
| p   pull-off
| ~   vibrato
| +   harmonic
| x   Mute note
| b   Bend
| pb  Pre-bend
| br  Bend release
| pbr Pre-bend release
| brb Bend release bend

************************************
Tap to rate this tab
 
# A B C D E F G H I J K L M N O P Q R S T U V W X Y Z