Charles Bronson - Like All The Rest Neos tab

(VERSE 1)
e |-----------------------------------------------------------------|
B |-----------------------------------------------------------------|
G |-----------------------------------------------------------------|
D |--------9-9-9----------------------------------------------------| x5
A |-8-8-8--7-7-7--6-6-6--8-8-8--------------------------------------|
E |-6-6-6---------4-4-4--6-6-6--------------------------------------|

(VERSE 2)
e |-----------------------------------------------------------------|
B |-----------------------------------------------------------------|
G |-----------------------------------------------------------------|
D |-----------------------------------11-11-11--9-9-9---------------| x2
A |-5-5-5-5-5-5-5-5--7-7-7-7-7-7-7-7---9--9--9--7-7-7--7-7-7--9-9-9-|
E |-3-3-3-3-3-3-3-3--5-5-5-5-5-5-5-5-------------------5-5-5--7-7-7-|

(VERSE 3)
e |-----------------------------------------------------------------|
B |-----------------------------------------------------------------|
G |-----------------------------------------------------------------|
D |-----------------------------------------------------------------| 
A |-5-5-5-5-5-5-5-5--11-11-11---------------------------------------|
E |-3-3-3-3-3-3-3-3---9--9--9---------------------------------------|

(VERSE 1)
e |-----------------------------------------------------------------|
B |-----------------------------------------------------------------|
G |-----------------------------------------------------------------|
D |--------9-9-9----------------------------------------------------| x2
A |-8-8-8--7-7-7--6-6-6--8-8-8--------------------------------------|
E |-6-6-6---------4-4-4--6-6-6--------------------------------------|

(END)
e |-----------------------------------------------------------------------|
B |-----------------------------------------------------------------------|
G |-----------------------------------------------------------------------|
D |-----------------------8-8-8-8--10-10-10-10-10---------9-9-9-----------| 
A |-8-8-8-8--10-10-10-10--6-6-6-6---8--8--8--8--8--8-8-8--7-7-7--6-6-6--8-|
E |-6-6-6-6---8--8--8--8---------------------------6-6-6---------4-4-4--6-|
Tap to rate this tab
 
# A B C D E F G H I J K L M N O P Q R S T U V W X Y Z