Charles Bronson - Ricki Lake tab

the notes with "." under them are palm muted


(INTRO)
e |----------------------------------------------|
B |----------------------------------------------|
G |----------------------------------------------|
D |----------------------------------------------| x2
A |-5--5-5--5--4--4-4--4--2--2-2--2--2--2-2--2---|
E |-3--3-3--3--2--2-2--2--0--0-0--0--0--0-0--0---|
       . .        . .        . .        . .

(VERSE 1)
e |----------------------------------------------|
B |----------------------------------------------|
G |----------------------------------------------|
D |----------5-5-5-5-----------6-6-6-6-----------| x6
A |-4-4-4-4--3-3-3-3--5-5-5-5--4-4-4-4-----------|
E |-2-2-2-2-----------3-3-3-3--------------------|

(VERSE 2)
e |----------------------------------------------|
B |----------------------------------------------|
G |----------------------------------------------|
D |----------------------------------------------| x2
A |-5-5-5-5--8-8-8-8--3-3-3-3--3-3-3-3-----------|
E |-3-3-3-3--6-6-6-6--1-1-1-1--1-1-1-1-----------|

(VERSE 1)
e |----------------------------------------------|
B |----------------------------------------------|
G |----------------------------------------------|
D |----------5-5-5-5-----------6-6-6-6-----------| x4
A |-4-4-4-4--3-3-3-3--5-5-5-5--4-4-4-4-----------|
E |-2-2-2-2-----------3-3-3-3--------------------|

(END)
e |----------------------------------------------|
B |----------------------------------------------|
G |----------------------------------------------|
D |----------------------------------------------| x2
A |-5-5-5-5--8-8-8-8--3-3-3-3--3-3-3-3-----------|
E |-3-3-3-3--6-6-6-6--1-1-1-1--1-1-1-1-----------|
Tap to rate this tab
 
# A B C D E F G H I J K L M N O P Q R S T U V W X Y Z