Song name
# A B C D E F G H I J K L M N O P Q R S T U V W X Y Z

Charles Bronson - Im Sick Of Feminists tab

(VERSE 1)
e |----------------------------------------|
B |----------------------------------------|
G |----------------------------------------|
D |----------------------------------------|x6
A |-5-5-5-5--7-7-7-7--8-8-8-8--7-7-7-7-----|
E |-3-3-3-3--5-5-5-5--6-6-6-6--5-5-5-5-----|

(VERSE 2)
e |----------------------------------------|
B |----------------------------------------|
G |----------------------------------------|
D |-10-10-10--8-8-8--7-7-7--12-12-12-------|x4
A |-8--8--8---6-6-6--5-5-5--10-10-10-------|
E |----------------------------------------|

(END)
e |----------------------------------------|
B |----------------------------------------|
G |----------------------------------------|
D |----------------------------------------|x5
A |-5-5-5-5--7-7-7-7--8-8-8-8--7-7-7-7-----|
E |-3-3-3-3--5-5-5-5--6-6-6-6--5-5-5-5-----|
Tap to rate this tab
 
# A B C D E F G H I J K L M N O P Q R S T U V W X Y Z