Charles Bronson - Irritation tab

(VERSE 1)
e |----------------------------------|
B |----------------------------------|
G |----------------------------------|
D |---------4-3----------------------| x6
A |-2-4--x--2-1--x--4-5--x--5-5-5-5--|
E |-0-2--x-------x--2-3--x--3-3-3-3--|
                            . . . .

(VERSE 2)
e |----------------------------------|
B |----------------------------------|
G |----------------------------------|
D |----------------------------------| x2
A |-2-2--3-3--8-8--3-3-3-3-----------|
E |-0-0--1-1--6-6--1-1-1-1-----------|
                   . . . .  

(VERSE 3)
e |----------------------------------|
B |----------------------------------|
G |----------------------------------|
D |----------------------------------| x3
A |-2-4--x--4-5--x--5-8--x--5-5-5-5--|
E |-0-2--x--2-3--x--3-6--x--3-3-3-3--|
                            . . . .
Tap to rate this tab
 
# A B C D E F G H I J K L M N O P Q R S T U V W X Y Z