Song name
# A B C D E F G H I J K L M N O P Q R S T U V W X Y Z

Charles Bronson - Sick Of Oj tab

(INTRO)
e |--------------------------------|
B |--------------------------------|
G |--------------------------------|
D |-9---7---6----------------------|
A |-7---5---4----------------------|
E |--------------------------------|

(VERSE 1)
e |--------------------------------|
B |--------------------------------|
G |--------------------------------|
D |-9-9--7-7--11-11--6-6-----------| x4
A |-7-7--5-5---9--9--4-4-----------|
E |--------------------------------|

(VERSE 2)
e |--------------------------------|
B |--------------------------------|
G |--------------------------------|
D |-9-9--7-7--6-6-6-6-6------------| x4
A |-7-7--5-5--4-4-4-4-4------------|
E |--------------------------------|

(VERSE 1)
e |--------------------------------|
B |--------------------------------|
G |--------------------------------|
D |-9-9--7-7--11-11--6-6-----------| x4
A |-7-7--5-5---9--9--4-4-----------|
E |--------------------------------|
Tap to rate this tab
 
# A B C D E F G H I J K L M N O P Q R S T U V W X Y Z