Song name
# A B C D E F G H I J K L M N O P Q R S T U V W X Y Z

Charles Bronson - Deaf And Dumb tab

e|------------------------------------|
B|------------------------------------|
G|------------------------------------|
D|-9---9-(Let ring)-------------------|
A|-9---9------------------------------|
D|-9---9------------pick slide--------|

e|-------------------------------------|
B|-------------------------------------|
G|-------------------------------------|
D|-9-9-9-8-8-8--8-8-8--7-7-7-----------|
A|-9-9-9-8-8-8--6-6-6--7-7-7-----------|
D|-9-9-9-8-8-8---------7-7-7-----------|

e|------------------------------------|
B|------------------------------------|
G|------------------------------------|
D|-9-8-9-9-9-9-9-9-9-9-9--------------|
A|-9-8-9-7-7-7-7-7-7-7-7--------------|
D|-9-8-9------------------------------|

e|------------------------------------|
B|------------------------------------|
G|------------------------------------|
D|-9-9-9-9-8-8-9-9-9-9-9-9-9-9-9------|
A|-9-9-9-9-8-8-9-7-7-7-7-7-7-7-7------|
D|-9-9-9-9-8-8-9----------------------|

e|-------------------------------------|
B|-------------------------------------|
G|-------------------------------------|
D|-9-8-7-7-7---------------------------|
A|-9-8-7-7-7---------------------------|
D|-9-8-7-7-7---------------------------|

e|------------------------------------|
B|------------------------------------|
G|------------------------------------|
D|-9-9-9-9-8-8-9-9-9-9-9-9-9-9-9------|
A|-9-9-9-9-8-8-9-7-7-7-7-7-7-7-7------|
D|-9-9-9-9-8-8-9----------------------|

Have fun! sam

Umm ultimate guitar, they don't have an official
website, but here's a link to one of their record
reviws. http://www.fuzzlogic.com/flex/c/829.php
Tap to rate this tab
# A B C D E F G H I J K L M N O P Q R S T U V W X Y Z