Song name
# A B C D E F G H I J K L M N O P Q R S T U V W X Y Z

Charles Bronson - Why Do You Bother tab

Why Do You Bother?

Verse
|---------------------|
|---------------------|
|------8888------6666-|
|-9999-8888-7777-6666-|
|-9999-6666-7777-4444-|
|-7777------5555------|

Chorus
|--------------------------------------------|
|--------------------------------------------|
|-99999999-1111111111111111------------------|
|-99999999-1111111111111111-9999999999999999-|
|-77777777--9-9-9-9-9-9-9-9-9999999999999999-|
|---------------------------7777777777777777-|

Ending
|-------------|
|-------------|
|----8-----6--|
|-9--8--7--6--|
|-9--6--7--4--|
|-7-----5-----|

Song Order-
Verse  x4
Chorus x2
Verse  x4
Chorus x2
Ending x1
Tap to rate this tab
# A B C D E F G H I J K L M N O P Q R S T U V W X Y Z