Song name
# A B C D E F G H I J K L M N O P Q R S T U V W X Y Z

Charles Bronson - Theme Song tab

This is the theme song and what they play in the show for a scene change (not every change though)

Theme Song
Tuning-Standard

E||--1----||--1-1-1-1--||--1----||--1-1-1-1--||--1----||--1-1-1-1--||--1--|
B||--2----||--1-1-1-1--||--2----||--1-1-1-1--||--2----||--1-1-1-1--||--2--|
G||--3----||--2-2-2-2--||--3----||--2-2-2-2--||--3----||--2-2-2-2--||--3--|
D||--3----||--3-3-3-3--||--3----||--3-3-3-3--||--3----||--3-3-3-3--||--3--|
A||--1----||--3-3-3-3--||--1----||--3-3-3-3--||--1----||--3-3-3-3--||--1--|
E||-------||--1-1-1-1--||-------||--1-1-1-1--||-------||--1-1-1-1--||-----|

And in the show for a scene change or somthing, they play this. 
Tuning-Standard

E||--1-1-1-1---||--1----1----1--||--1-1-1-1---||--1--0--1--0-|
B||--1-1-1-1---||--2----2----2--||--1-1-1-1---||--1--0--1--0-|
G||--2-2-2-2---||--3----3----3--||--2-2-2-2---||--2--1--2--1-|
D||--3-3-3-3---||--3----3----3--||--3-3-3-3---||--3--2--3--2-|
A||--3-3-3-3---||--1----1----1--||--3-3-3-3---||--3--2--3--2-|
E||--1-1-1-1---||---------------||--1-1-1-1---||--1--0--1--0-|
   |Play fast|

And there ya go!
Tap to rate this tab
# A B C D E F G H I J K L M N O P Q R S T U V W X Y Z