Song name
# A B C D E F G H I J K L M N O P Q R S T U V W X Y Z

Charles Bronson - Shane Song tab

The Shane Song
by CHARLES BRONSON

Verse
|-------------------------------------------|
|-------------------------------------------|
|-----------------------6-6-6-66-6-4--------|
|-6-6-6-66-6-4-4-4-44-4-6-6-6-66-6-4----6-4-|
|-6-6-6-66-6-4-4-4-44-4-4-4-4-44-4-2----6-4-|
|-4-4-4-44-4-2-2-2-22-2-----------------4-2-|

Chorus
|------------------------------------|
|------------------------------------|
|--------------999-101010-999-101010-|
|-666666666666-999-101010-999-101010-|
|-666666666666-777--8-8-8-777--8-8-8-|
|-444444444444-----------------------|

Bridge
|-----------------------------------|
|-555555-666666-888888-101010101010-|
|-444444-555555-777777--9-9-9-9-9-9-|
|-222222-333333-555555--7-7-7-7-7-7-|
|-----------------------------------|
|-----------------------------------|


song order-

INTRO- Play Verse x2
Verse  x4
Chorus x4
Verse  x4
Bridge x2
Chorus x4

not  a very good song. But i was bored. So i tabbed it.
Questions, comments, at hella-address@sbcglobal.net
PEACE
Tap to rate this tab
# A B C D E F G H I J K L M N O P Q R S T U V W X Y Z