Guitaretab - guitar tabs
Song name
# A B C D E F G H I J K L M N O P Q R S T U V W X Y Z

Charles Mack - Fathers Song tab

-------------------------------------------------------------------------------
			     Father’s Songs – August rush
-------------------------------------------------------------------------------
Tabbed by: Craig Stevens
Email:casn92@missouri.edu

Tuning: Standard

e|---------------------------------------------------------------------------------|
B|----8--------------8---------------8---------------8-----------------------------|
G|----x----------------------------------------------------------------------------|
D|----8--------------8---------------8--------------8------------------------------|
A|----6-------6--------------6---------------6-------------------------------------|
E|---------------------------------------------------------------------------------|
[ Tab from: http://www.guitaretab.com/c/charles-mack/167439.html ]
e|---------------------------------------------------------------------------------|
B|------8-------------8------------------8-----------------------------------------|
G|------x--------------------------------------------------------------------------|
D|----- 6------6--------------6----------------------------------------------------|
A|------4------4--------------4----------------------------------------------------|
E|---------------------------------------------------------------------------------|

e|---------------------------------------------------------------------------------|
B|---------------------------------------------------------------------------------|
G|-----8----------8--------8----------8--------------------------------------------|
D|-----8----------8--------8----------8--------------------------------------------|
A|-----x---------------------------------------------------------------------------|
E|----- 8------8--------8---------8------------------------------------------------|

e|--------------------------------------------------------------------------------|
B|--------------------------------------------------------------------------------|
G|------8----------------10-------------------------------------------------------|
D|------8----------------8--------------------------------------------------------|
A|------x----------------x--------------------------------------------------------|
E|------7----------------6--------------------------------------------------------|
Fathers Song chords by Charles Mack