Charles Manson - Look At Your Game Girl chords

Highlighted       Show chord diagrams
-------------------------------------------------------------------------------
		       Look At Your Game, Girl - CHARLES MANSON
-------------------------------------------------------------------------------
Tabbed by: Kevin Croner (Kevin2407)
Email: kevincroner@hotmail.com

Tuning: Standard [eADGBE]

Chords used:

D7/A  : 557675
C7/G  : 335453
E7/B  : 779897
A     : 577655
A7    : 575655
A9    : 575657
G#7   : 464544


D7/A 
         There's a ti - me  for   living~
  
e|-------------------------------------------------------------------------|
B|---(7)-------------------------------------------------------------------|
G|---6---------------------------------------------------------------------|
D|--7---------------------------------------------------(5~)---------------|
A|-5-----------------------------------------------5~----------------------|
E|5--------------------------------------------5~--------------------------|

   D7/A                              C7/G
  Ti - me     keeps     on          flying

e|5~----------------------------------3~-----------------------------------|
B|7~----------------------------------5~-----------------------------------|
G|6~----------------------------------4~-----------------------------------|
D|7~----------------------------------5~-----------------------------------|
A|5~----------------------------------3~-----------------------------------|
E|5~----------------------------------3~-----------------------------------|

 D7/A         C7/G
  Think you're loving baby

    D7/A             C7/G
But all your doing is crying


[chorus]
         D7/A
Can you feel
C7/G     D7/A
Are those feelings real
C7/G             D7/A      C7/G
     Look at your game, girl
 D7/A                      C7/G
    Look at your game, girl

D7/A            C7/G
  What a mad delusion
D7/A                 C7/G
   Living in that confusion
D7/A               C7/G
   Frustration and doubt
 A7                    A9         D7/A    DM7 C#M7 CM7 
   Can you ever live without the game
 
 D7/A    D7/A-C#M7/G#-C7/G-D7/A


(Continue with the same chords progression)

The sad, sad game
Mad game
Just to say loves' not enough
If one you can't be true
Oh, you can tell those lies
Baby but you're only fooling you

[chorus]

You feel
Ah, those feelings ain't real
Then you better stop trying
Or you're gonna play crying
Stop trying



           D7/A~   DM7 C#M7 CM7~  A7 G#7
That's the game

D7/A~   D7/A-C#M7/G#-C7/G      DM7/G
                              Sad sad game

(Continue, fade out) 
Mad game
Sad game


TAB LEGEND:

(6): Play if you want to
 4~: Hold note
Tap to rate this tab
 
# A B C D E F G H I J K L M N O P Q R S T U V W X Y Z