Song name
# A B C D E F G H I J K L M N O P Q R S T U V W X Y Z

Charlie Brown Jr - Samba Makossa Acoustic tab

Primeira parte

            C#m  B               E    F#
E|-------------------------------------------|
B|-------------------------------------------|
G|--------4/6-6--4--4-4----------1-1--3--3-3-|
D|--------4/6-6--4--4-4----------2-2--4--4-4-|
A|-----2--2/4-4--2--2-2--2h4-2---2-2--4--4-4-|
E|-2h4------------------------h4-0-0--2--2-2-|

Durante a música

   C#m B        E   F#
E|--------------------------------|
B|------0----0--------0-----------|
G|--------------------------4-3-4-|
D|--------------------------------|
A|-2/4-----2---2/4/2--------------|
E|------------------0---2---------|
Tap to rate this tab
# A B C D E F G H I J K L M N O P Q R S T U V W X Y Z