Song name
# A B C D E F G H I J K L M N O P Q R S T U V W X Y Z

Charlie Chaplin - Smile tab

-------------------------------------------------------------------------------
			                          SMILE - Charlie Chaplin
-------------------------------------------------------------------------------
Tabbed by: Mynzadik
Email: mynzadik@gmAIL.COM

Tuning: Standard

*******************************************************************************
this is the song's melody.

p=pull off
h=hammer on
~=vibrato
/=slide up
\=slide down
*******************************************************************************

e||------0--------------------------------------------------0--1-------||
B||-1--3---3--1-0------0--1-3-1--0---------0-1--------0-1-3------3p1h3-||
G||-0--------------2~--0-----------2-0--2------2p0h2~------------------||
D||-2------------------0----------------3------------------------------||
A||-------------------------------------3------------------------------||
E||--------------------------------------------------------------------||

e||--------3h5p3--1p0----1--3/5\3--1-0----0-0-0-1--0-------------0-0---||
B||-3-5/6~------------3--3-------------3~-0----------3-1-3p1h3-------1-||
G||-4--------------------2----------------0--------------------2-----0-||
D||-4----------------------------------------------------------------2-||
A||------------------------------------------------------------------3-||
E||--------------------------------------------------------------------||

Remarks:
========
1. originally, the song is this part played twice, where at the first time the last 2 
aren't played.

2. the hammer-ons, pull-offs, vibratos, slides are all just to make the song more 
then just
regular guitar picking. you can use it, change it or ignore it, whatever sounds good to 
and just
have fun finding your sound when playing this song.

3. all the chords are just to make it sound more rich. if you don't want to play them, 
can just play
the high note of each chord.

4. also, the pull-offs fallowed by hammer-ons (like 3p1h3), if chosen to play, should be 
one beat.
if you choose not the play them, then the first note should be played.

enjoy!
Tap to rate this tab
 
# A B C D E F G H I J K L M N O P Q R S T U V W X Y Z