Song name
# A B C D E F G H I J K L M N O P Q R S T U V W X Y Z

Charlie Christian - Six Appeal tab

Help us improve GuitareTab! Take a short survey!
Charlie Christian
The Genius Of The Electric Guitar
Six Appeal





E----------------------|-------------------|
B----------------------|-------------------|
G-----12-10------------|-------------------|
D--/10------10---------|-/9----8---8-------|
A-------------11-8--11-|---11-8-----8-8-11-|
E----------------------|-------------------|

E--------------------------|------------------------------------|
B--------------------------|-------------------------------10-8-|
G--------10-10h12p10-------|-----------/9-7---------------7-----|
D-------------------10-----|--------10-----8-------------8------|
A-8h10h11-------------11-8-|-11-8-11--------10-9-8---7-10-------|
E--------------------------|-----------------------10-----------|

E---------------------------------------------------------------------|
B-13-13-13---9-13--9-13-11-11-11--8-11-8-11--13-13-13---9-13--9-13-14-|
G----------10----10--------------9----9---------------10----10--------|
D---------------------------------------------------------------------|
A---------------------------------------------------------------------|
E---------------------------------------------------------------------|

E-/13-12-11-10-9-8-13\-10-8----------8-10-8h10p8----------|
B--------------------------9--------9-----------9---------|
G---------------------------10-7--10-------------10-10-10-|
D-------------------------------10------------------------|
A---------------------------------------------------------|
E---------------------------------------------------------|
Related for Six Appeal tab